top separator

Home

Forum

What's New

Submit a Tab

FAQ

Links

Contact Us

Link to Us

MuSpy.com

MetalTabs.com logo

Bands

0-9

A

B

C

D

E

F

G

H

I

J

K

L

M

N

O

P

Q

R

S

T

U

V

W

X

Y

Z

Search

What

Where
 

Demolition Hammer - "Pyroclastic Annihilation" Guitar Tab

Plain Text Version
More Demolition Hammer Tabs

Hits: 4388
Rated: 5.00 out of 5 (3 votes)
Updated: 2005-08-09 17:03:16

 

By:

MetalThrashingMad

sendpm.gif

email.gif

Important note
We did our best to reach Demolition Hammer and ask for their permission to publish this tab. Unfortunately they did not respond to our requests or we could not find a way to contact them. This tab is available online until Demolition Hammer tells us to take it down.


#----------------------------------PLEASE NOTE---------------------------------#
#This file is the author's own work and represents their interpretation of the #
#song. You may only use this file for private study, scholarship, or research. #
#Unless specified otherwise, this is NOT an official tab from the band members.#
#------------------------------------------------------------------------------#

  Visit MetalTabs.com for more metal tablature
  
PYROCLASTIC ANNIHILATION
                        As recorded by Demolition Hammer
                   (From the 1992 Album EPIDEMIC OF VIOLENCE)
                       Copyright (c) Century Media Records


Arranged by Demolition Hammer
Transcribed by Steve Rubaszek
Version - 1.0, July 13, 2005


Gtr I (D# G# C# F# A# D#) - 'Guitar 1'
Gtr II (D# G# C# F# A# D#) - 'Guitar 2'


   0:00
    Q=155
   4/4
    Gtrs I, II
    PM--------|   PM--------|     PM--------|   PM------------|
    S S S S S S E S S S S S S E   S S S S S S E S S S S S S S S  6x
||------------------------------|--------------------------------||
||o-----------------------------|-------------------------------o||
||------------------------------|--------------------------------||
||------------------------------|--------------------------------||
||o-------------5-------------7-|-------------5-----------------o||
||--0-0-0-0-0-0-3-0-0-0-0-0-0-5-|-0-0-0-0-0-0-3-2-2-2-2-2-2-2-2--||


    PM--------|   PM--------|
    S S S S S S E S S S S S S E
||------------------------------|
||o-----------------------------|
||------------------------------|
||------------------------------|
||o-------------5-------------4-|
||--3-3-3-3-3-3-3-2-2-2-2-2-2-2-|


  PM------------------------------------------|   PM--------|
  S S S S S S S S S S S S S S E  3x S S S S S S E S S S S S S E
|--------------------------------||------------------------------
|-------------------------------o||------------------------------
|--------------------------------||------------------------------
|--------------------------------||------------------------------
|-----------------------------5-o||-------------5-------------4--
|-0-0-0-0-0-0-0-0-0-0-0-0-0-0-3--||-3-3-3-3-3-3-3-2-2-2-2-2-2-2--


   0:30
    PM--------|   PM--------|     PM--------|   PM------------|
    S S S S S S E S S S S S S E   S S S S S S E S S S S S S S S   4x
||------------------------------|---------------------------------||
||o-----------------------------|--------------------------------o||
||------------------------------|---------------------------------||
||------------------------------|---------------------------------||
||o-------------5-------------7-|-------------5------------------o||
||--0-0-0-0-0-0-3-0-0-0-0-0-0-5-|-0-0-0-0-0-0-3-2-2-2-2-2-2-2-2---||


    PM--------|   PM--------|
    S S S S S S E S S S S S S E
||------------------------------|
||o-----------------------------|
||------------------------------|
||------------------------------|
||o-------------5-------------4-|
||--3-3-3-3-3-3-3-2-2-2-2-2-2-2-|


  PM------------------------------------------|   PM--------|
  S S S S S S S S S S S S S S E  3x S S S S S S E S S S S S S E
|--------------------------------||------------------------------
|-------------------------------o||------------------------------
|--------------------------------||------------------------------
|--------------------------------||------------------------------
|-----------------------------5-o||-------------5-------------4--
|-0-0-0-0-0-0-0-0-0-0-0-0-0-0-3--||-3-3-3-3-3-3-3-2-2-2-2-2-2-2--


   0:54
    PM--------|   PM--------|     PM--------|   PM----|
    S S S S S S E S S S S S S E   S S S S S S E E E E E  4x
||------------------------------|------------------------||
||o-----------------------------|-----------------------o||
||------------------------------|------------------------||
||------------------------------|------------------------||
||o-------------5-------------5-|-------------5-2-4-5-7-o||
||--0-0-0-0-0-0-3-0-0-0-0-0-0-3-|-0-0-0-0-0-0-3-0-2-3-5--||


 1:06
  Q=225
  PM-------------------------------------------------
  S S S S S S S S E E E E   S S S S S S S S E E E E
|-------------------------|-------------------------|
|-------------------------|-------------------------|
|-------------------------|-------------------------|
|-------------------------|-------------------------|
|-------------------------|-------------------------|
|-3-3-3-3-3-3-3-3-4-3-1-3-|-3-3-3-3-3-3-3-3-4-3-1-3-|


 -----------------------|
  S S S S S S S S E E E E   Q  Q  Q  Q
|-------------------------|-------------|
|-------------------------|-------------|
|-------------------------|-------------|
|-------------------------|-5--5--------|
|-------------------------|-3--3--5--6--|
|-3-3-3-3-3-3-3-3-4-3-1-3-|-------3--4--|


    PM-----------------------|
    S S S S S S S S E E Q    Q  Q  Q  Q
||-------------------------|-------------|
||o------------------------|-------------|
||-------------------------|-------------|
||-------------------------|-4--5--------|
||o------------------------|-2--3--6--5--|
||--3-3-3-3-3-3-3-3-4-3-1--|-------4--3--|


  PM-----------------------|
  S S S S S S S S E E Q    Q  Q  Q  Q   4x
|------------------------|--------------||
|------------------------|-------------o||
|------------------------|--------------||
|------------------------|-4--5---------||
|------------------------|-2--3--6--5--o||
|-3-3-3-3-3-3-3-3-4-3-1--|-------4--3---||


    PM-------------------------------------------------
    S S S S S S S S E E E E   S S S S S S S S E E E E
||--------------------------|-------------------------|
||o-------------------------|-------------------------|
||--------------------------|-------------------------|
||--------------------------|-------------------------|
||o-------------------------|-------------------------|
||--3-3-3-3-3-3-3-3-4-3-1-3-|-3-3-3-3-3-3-3-3-4-3-1-3-|


 -----------------------|
  S S S S S S S S E E E E   Q  Q  Q  Q     3x
|-------------------------|----------------||
|-------------------------|---------------o||
|-------------------------|----------------||
|-------------------------|-5--5-----------||
|-------------------------|-3--3--5--6----o||
|-3-3-3-3-3-3-3-3-4-3-1-3-|-------3--4-----||


  PM-------------------------------------------------
  S S S S S S S S E E E E   S S S S S S S S E E E E
|-------------------------|-------------------------|
|-------------------------|-------------------------|
|-------------------------|-------------------------|
|-------------------------|-------------------------|
|-------------------------|-------------------------|
|-3-3-3-3-3-3-3-3-4-3-1-3-|-3-3-3-3-3-3-3-3-4-3-1-3-|


 -----------------------|
  S S S S S S S S E E E E   Q  Q  Q  Q
|-------------------------|-------------|
|-------------------------|-------------|
|-------------------------|-------------|
|-------------------------|-5-----4-----|
|-------------------------|-3-----2--3--|
|-3-3-3-3-3-3-3-3-4-3-1-3-|----------1--|


   1:42
    PM----------------------------|
    S S S S S S S S S S S S S S S S   S S S S S S S S Q  Q   8x
||----------------------------------|------------------------||
||o---------------------------------|-----------------------o||
||----------------------------------|------------------------||
||----------------------------------|-----------------4------||
||o---------------------------------|-----------------2--3--o||
||--0-0-0-0-0-0-0-0-1-0-0-0-0-0-0-0-|-0-0-0-0-0-0-0-0----1---||


    Q=135
    PM--------------------|       PM------------|   PM|
    S S S S S S S S S S S S E E   S S S S S S S S E S S E E  3x
||------------------------------|----------------------------||
||o-----------------------------|---------------------------o||
||------------------------------|----------------------------||
||--------------------------4---|-----------------------4----||
||o-------------------------2-3-|-----------------5-----2-3-o||
||--0-0-0-0-0-0-0-0-0-0-0-0---1-|-0-0-0-0-0-0-0-0-3-0-0---1--||


  PM--------------------|       PM------------|
  S S S S S S S S S S S S E E   S S S S S S S S Q  Q
|-----------------------------|--------------------------|
|-----------------------------|--------------------------|
|-----------------------------|--------------------------|
|-------------------------4---|--------------------------|
|-------------------------2-3-|-----------------5--------|
|-0-0-0-0-0-0-0-0-0-0-0-0---1-|-0-0-0-0-0-0-0-0-3--------|


   2:12
    PM--------|   PM--------|     PM--------|   PM------------|
    S S S S S S E S S S S S S E   S S S S S S E S S S S S S S S   4x
||------------------------------|---------------------------------||
||o-----------------------------|--------------------------------o||
||------------------------------|---------------------------------||
||------------------------------|---------------------------------||
||o-------------5-------------7-|-------------5------------------o||
||--0-0-0-0-0-0-3-0-0-0-0-0-0-5-|-0-0-0-0-0-0-3-2-2-2-2-2-2-2-2---||


    PM--------|   PM--------|
    S S S S S S E S S S S S S E
||------------------------------|
||o-----------------------------|
||------------------------------|
||------------------------------|
||o-------------5-------------4-|
||--3-3-3-3-3-3-3-2-2-2-2-2-2-2-|


  PM------------------------------------------|   PM--------|
  S S S S S S S S S S S S S S E  3x S S S S S S E S S S S S S E
|--------------------------------||------------------------------
|-------------------------------o||------------------------------
|--------------------------------||------------------------------
|--------------------------------||------------------------------
|-----------------------------5-o||-------------5-------------4--
|-0-0-0-0-0-0-0-0-0-0-0-0-0-0-3--||-3-3-3-3-3-3-3-2-2-2-2-2-2-2--


    PM--------|   PM--------|     PM--------|   PM----|
    S S S S S S E S S S S S S E   S S S S S S E E E E E  4x
||------------------------------|------------------------||
||o-----------------------------|-----------------------o||
||------------------------------|------------------------||
||------------------------------|------------------------||
||o-------------5-------------5-|-------------5-2-4-5-7-o||
||--0-0-0-0-0-0-3-0-0-0-0-0-0-3-|-0-0-0-0-0-0-3-0-2-3-5--||


   2:49
    Q=180
    PM-----------------------------------------------------
    S S S S E S S E S S E S S   S S S S E S S E S S E S S
||----------------------------|---------------------------|
||o---------------------------|---------------------------|
||----------------------------|---------------------------|
||----------------------------|---------------------------|
||o---------------------------|---------------------------|
||--0-0-0-0-0-0-0-0-0-0-0-0-0-|-0-0-0-0-0-0-0-0-0-0-0-0-0-|


 ---------------------------------------------------|
  S S S S E S S E S S E S S   E S S E S S E S S E S S  4x
|---------------------------|--------------------------||
|---------------------------|-------------------------o||
|---------------------------|--------------------------||
|---------------------------|--------------------------||
|---------------------------|-------------------------o||
|-0-0-0-0-0-0-0-0-0-0-0-0-0-|-0-3-3-3-5-5-5-6-6-6-0-0--||


    PM----------------------------|
    S S S S S S S S S S S S S S S S   S S S S S S S S S S S S S S S S   4x
||----------------------------------|-----------------------------------||
||o---------------------------------|----------------------------------o||
||----------------------------------|-----------------------------------||
||----------------------------------|-----------------------------------||
||o---------------------------------|-2-2-2-2-1-1-1-1-2-2-2-2-1-1-1-1--o||
||--0-0-0-0-0-0-0-0-4-4-4-4-4-4-4-4-|-----------------------------------||


    PM----|     PM|                       PM----|     PM|
    E E E E E E E E   E E E E E E E E  3x E E E E E E E E   E E E E H
||------------------|------------------||-----------------|--------------|
||o-----------------|-----------------o||-----------------|--------------|
||------------------|------------------||-----------------|--------------|
||------------------|------------------||-----------------|--------------|
||o-2-------3-------|-4---3---4---3---o||-2-------3-------|-4---3--------|
||--0-0-0-0-1p0-0-0-|-2p0-1p0-2p0-1p0--||-0-0-0-0-1p0-0-0-|-2p0-1p0------|


   3:37
    Q=225
    PM-------------------------------------------------
    S S S S S S S S E E E E   S S S S S S S S E E E E
||--------------------------|-------------------------|
||o-------------------------|-------------------------|
||--------------------------|-------------------------|
||--------------------------|-------------------------|
||o-------------------------|-------------------------|
||--3-3-3-3-3-3-3-3-4-3-1-3-|-3-3-3-3-3-3-3-3-4-3-1-3-|


 -----------------------|
  S S S S S S S S E E E E   Q  Q  Q  Q     4x
|-------------------------|----------------||
|-------------------------|---------------o||
|-------------------------|----------------||
|-------------------------|-5--5-----------||
|-------------------------|-3--3--6--5----o||
|-3-3-3-3-3-3-3-3-4-3-1-3-|-------4--3-----||


    PM----------------------------|
    S S S S S S S S S S S S S S S S   S S S S S S S S Q  Q   8x
||----------------------------------|------------------------||
||o---------------------------------|-----------------------o||
||----------------------------------|------------------------||
||----------------------------------|-----------------4------||
||o---------------------------------|-----------------2--3--o||
||--0-0-0-0-0-0-0-0-1-0-0-0-0-0-0-0-|-0-0-0-0-0-0-0-0----1---||


    PM-------------------------------------------------
    S S S S S S S S E E E E   S S S S S S S S E E E E
||--------------------------|-------------------------|
||o-------------------------|-------------------------|
||--------------------------|-------------------------|
||--------------------------|-------------------------|
||o-------------------------|-------------------------|
||--3-3-3-3-3-3-3-3-4-3-1-3-|-3-3-3-3-3-3-3-3-4-3-1-3-|


 -----------------------|
  S S S S S S S S E E E E   Q  Q  Q  Q     4x
|-------------------------|----------------||
|-------------------------|---------------o||
|-------------------------|----------------||
|-------------------------|-5--5-----------||
|-------------------------|-3--3--6--5----o||
|-3-3-3-3-3-3-3-3-4-3-1-3-|-------4--3-----||


   4:23
    Q=240
    PM--------------------------------------|
    S S S S S S S S S S S S S S S S   S S S S Q  Q  Q   4x
||----------------------------------|-------------------||
||o---------------------------------|------------------o||
||----------------------------------|-------------------||
||----------------------------------|---------8--7--6---||
||o-3-3-3-3-3-3-3-3-4-4-4-4-5-5-5-5-|-6-6-6-6-6--5--4--o||
||----------------------------------|-------------------||


    Q=220
    PM      PM        PM            PM      PM        PM
    E E E E E E E E   Q  Q  Q  Q    E E E E E E E E   Q  Q  Q  Q    4x
||------------------|-------------|-----------------|---------------||
||o-----------------|-------------|-----------------|--------------o||
||------------------|-------------|-----------------|---------------||
||------------------|----3--------|-----------------|----------3----||
||o---1-2-1---4-2-1-|----1--4--3--|---1-2-1---4-2-1-|----3--4--1---o||
||--0-------0-------|-0-----2--1--|-0-------0-------|-0--1--2-------||


    Q=240
    PM----------------------------------------------|
    S S S S S S S S S S S S S S S S   S S S S S S S S Q  Q   3x
||----------------------------------|------------------------||
||o---------------------------------|-----------------------o||
||----------------------------------|------------------------||
||----------------------------------|-----------------7--6---||
||o-3-3-3-3-3-3-3-3-4-4-4-4-5-5-5-5-|-6-6-6-6-6-6-6-6-5--4--o||
||----------------------------------|------------------------||


                                                    Q=220
  PM----------------------------------------------|
  S S S S S S S S S S S S S S S S   S S S S S S S S Q  Q
|---------------------------------|-----------------------|
|---------------------------------|-----------------------|
|---------------------------------|-----------------------|
|---------------------------------|-----------------3-----|
|-3-3-3-3-3-3-3-3-4-4-4-4-5-5-5-5-|-6-6-6-6-6-6-6-6-1--3--|
|---------------------------------|--------------------1--|


 4:53
  PM      PM
  E E E E E E E E   Q  H.
|-----------------|----------*|
|-----------------|----------*|
|-----------------|----------*|
|-----------------|----------*|
|---1-2-1---4-2-1-|-2--------*|
|-0-------0-------|-0--------*|


Duration Legend
---------------
W - whole; H - half; Q - quarter; E - 8th; S - 16th; T - 32nd; X - 64th;
a - acciaccatura
+ - note tied to previous; . - note dotted; .. - note double dotted
Uncapitalized letters represent notes that are staccato (1/2 duration)
Irregular groupings are notated above the duration line
Duration letters will always appear directly above the note/fret number it
represents the duration for.  Duration letters with no fret number below them
represent rests.  Multi-bar rests are notated in the form Wxn, where n is the
number of bars to rest for.  Low melody durations appear below the staff

Tablature Legend
----------------
 h   - hammer-on
 p   - pull-off
 b   - bend
 pb  - pre-bend
 r   - bend release (if no number after the r, then release immediately)
 /\  - slide into or out of (from/to "nowhere")
 s   - legato slide
 S   - shift slide
<n>  - natural harmonic
[n]  - artificial harmonic
n(n) - tapped harmonic
 ~   - vibrato
 tr  - trill
 T   - tap
 TP  - trem. picking
 PM  - palm muting
\n/  - tremolo bar dip; n = amount to dip
 \n  - tremolo bar down
 n/  - tremolo bar up
/n\  - tremolo bar inverted dip
 =   - hold bend; also acts as connecting device for hammers/pulls
 <>  - volume swell (louder/softer)
 x   - on rhythm slash represents muted slash
 o   - on rhythm slash represents single note slash

Misc Legend
-----------
 |  - bar
||  - double bar
||o - repeat start
o|| - repeat end
*|  - double bar (ending)
 :  - bar (freetime)
 $  - Segno
 &  - Coda
Tempo markers - <E/E./Q/Q./H/H.> = BPM(8/16=s8/s16), where s8 = swing 8ths,
s16 = swing 16ths

  Visit MetalTabs.com for more metal tablature

bottom separator

Contact Us | Privacy Policy | Disclaimer | Legal Notice
Copyright © 2001-2014 MetalTabs.com. All Rights Reserved.