top separator

Home

Forum

What's New

Submit a Tab

FAQ

Links

Contact Us

Link to Us

MetalTabs.com logo

Bands

0-9

A

B

C

D

E

F

G

H

I

J

K

L

M

N

O

P

Q

R

S

T

U

V

W

X

Y

Z

Search

What

Where
 

Darkthrone - "Cromlech" Guitar Tab

Plain Text Version
More Darkthrone Tabs

Hits: 8057
Rated: 4.44 out of 5 (9 votes)
Updated: 2005-09-01 15:46:00

 

By:

sendpm.gif

email.gif

Important note
This tab is available online because we obtained explicit permission from Darkthrone or their label.


#----------------------------------PLEASE NOTE---------------------------------#
#This file is the author's own work and represents their interpretation of the #
#song. You may only use this file for private study, scholarship, or research. #
#Unless specified otherwise, this is NOT an official tab from the band members.#
#------------------------------------------------------------------------------#

  Visit MetalTabs.com for more metal tablature
  
Band:   DARKTHRONE
Album:  SOULSIDE JOURNEY
Song:   Cromlech

Copyright (2003 Peaceville Records)  (Peaceville Records) (1990)
Version 1.0 - (Aug. 3, 2005)

Transcribed By: (Unas)
Email:          (Flukestoops760@earthlink.net)

                               Tap - t
                          Let ring - r
                          Pull off - p
                         Palm Mute - .
                 Tremelo pick note - "
Indicates Guitar Playing Specific Riff - ()


Tuning= E A D G B E

Fast Tempo
Intro
 -with lead listen to timing
(Rhythm)
|--------------------------|--------------------------|
|--------------------------|--------------------------|
|--------------------------|--------------------------|
|--------------------------|-----------------------111|
|--------------------------|------------22221111222---|
|33333344444422225551111444|333333444444--------------|
|..........................|............              |
|(Lead)                    |                          |
|--------------------------|--------------------------|
|--------------------------|--------------------------|
|--------------------------|--------------------------|
|--------------------------|--------------------------|
|33333344444422225551111444|-----------------------666|
|--------------------------|33333344444477776667777---|
                            ............
 Riff 1
(Both Guitars)
|------------------------------------|
|------------------------------------|
|------------------------------------|
|----------5r-----9r---5r---7r---3r--|
|2r---6r---3r-----7r---3r---5r---1r--|
|0r---4r-----------------------------|

 Riff 2
(Both Guitars)
|-----------------------|
|-----------------------|
|-----------------------|
|-----------2"----0"----|
|------3"------3"----1"-|
|0"-4"------------------|

 Riff 3 (tremolo pick and tap
         the single notes in between)
  -with lead listen to timing
     X2     X2       X2     X1       X1
|------|------|--------|------|--------|
|------|------|--------|------|--------|
|------|------|--------|------|--------|
|------|------|--------|------|--------|
|5"8558|3"6336|7"107710|6"9669|9"129912|
|------|------|--------|------|--------|
|LEAD X2    X2       X2      X1       X1
|------|------|--------|------|--------|
|------|------|--------|------|--------|
|------|------|--------|------|--------|
|4"7447|2"5225|6"-966-9|5"8558|8"118811|
|------|------|--------|------|--------|
|------|------|--------|------|--------|

 Riff4
(Both Guitars)
|---------------------|
|---------------------|
|---------------------|
|---------------------|
|-------------4p3-3p2-|
|111111222222----4---3|

 Riff5
|--||-------------------------------------------------------------
|--||-------------------------------------------------------------
|--||-------------------------------------------------------------
|--||------------------10------------------------9"-12"-11"-7"-8"-
|--||7"-6"-------7"-6"-10----7"-6"-------11"-10"------------------
|0-||------8"-0r--------8-0r-------8"-9"--------------------------

----------------------------||
----------------------------||
----------------------------||
-----------9"-12"-11"-7"-8"-||
---11"-10"------------------||
8"--------------------------||

Riff1
Intro
Riff2

Pause for Bass Fill

Riff 6
(Both Guitars)     X3
|--------------------|-----------------|
|--------------------|-----------------|
|--------------------|-----------------|
|---------------1-1--|-----------------|
|44-5-44-5-44-5-1-1--|44--5-44--5-2----|
|22-3-22-3-22-3------|22--3-22--3-0----|

END

  Visit MetalTabs.com for more metal tablature

bottom separator

Contact Us | Privacy Policy | Disclaimer | Legal Notice
Copyright © 2001-2014 MetalTabs.com. All Rights Reserved.