top separator

Home

Forum

What's New

Submit a Tab

FAQ

Links

Contact Us

Link to Us

MetalTabs.com logo

Bands

0-9

A

B

C

D

E

F

G

H

I

J

K

L

M

N

O

P

Q

R

S

T

U

V

W

X

Y

Z

Search

What

Where
 

Prayer for Cleansing - "Sonnet" Guitar Tab

Plain Text Version
More Prayer for Cleansing Tabs

Hits: 3901
Rated: 2.50 out of 5 (4 votes)
Updated: 2005-08-09 16:48:55

 

By:

sendpm.gif

email.gif

Important note
This tab is available online because we obtained explicit permission from Prayer for Cleansing or their label.


#----------------------------------PLEASE NOTE---------------------------------#
#This file is the author's own work and represents their interpretation of the #
#song. You may only use this file for private study, scholarship, or research. #
#Unless specified otherwise, this is NOT an official tab from the band members.#
#------------------------------------------------------------------------------#

  Visit MetalTabs.com for more metal tablature
  
Artist: Prayer For Cleansing
Album: Rain In Endless Fall
Song: Sonnet

Copyright (c) Tribunal Records(1999)
Version 1.0 - 7/9/05

Transcribed by: Dylan
Email: Whitekracker66@aol.com

* Reapeat start and end
~ Vibrato
/ \ slide up or down
. palm mute
h hammer on
p pull off


Tuning: DADGBe

  Intro
E|---------------------------------|
B|---------------------------------|
G|--2h3p2----2-----------2---------|
D|-------5-4---3-2h3p2-3---3-2h3p2-|
A|---------------------------------|
D|---------------------------------|

E|----------------------------------------------------------------------|
B|----------------------------------------------------------------------|
G|--------------------1h2p1-------0h1p0-------------------------2-------|
D|----0---0---2-3---2-------2h3p2-------3h4p3-2h3p2-------5553332-------|
A|--------------------------------------------------555333------0-------|
D|--0---0---0-----0-----------------------------------------------------| X 4


    gtr 1 & 2
E|---------------------------------|----------------------------------------|
B|-*-------------------------------|----------------------------------------|
G|----------------0----------------|--------------0-----2h3p2---1-----------|
D|----0---2---3-------3--2-3-2-0-2-|--0---2---3-------3-------2---2h3p2-----|
A|-*-------------------------------|----------------------------------------|
D|--0---0---0---0---0--------------|0---0---0---0---0-----------------------|

E|---------------------------------|-------------------------------------------|
B|---------------------------------|--------------------------------------*----|
G|----------------0----------------|--------------0----------------2-0---------|
D|----0---2---3-------3--2-3-2-0-2-|--0---2---3-------3--3-2-5-3-2-----3-2-----|
A|---------------------------------|---------------------3----------------*(x2)|
D|--0---0---0---0---0--------------|0---0---0---0---0--------------------------|

    gtr 2
E|---------------------|
B|---------------------|
G|------------2-0------|
D|--3-2-5-3-2-----3-2--|
A|--3------------------|
D|---------------------|

            gtr 1
E|----------------------------------|
B|----------------------------------|
G|----------------------------------|
D|----------------------------------|
A|-0--0--0--------------------------|
D|-0--0--0--------------------------|
 | .  .  .  gtr 2
E|----------------------------------|
B|------------15----------15--------|
G|----------------18----------18----|
D|--------------------17---------17-|
A|----------------------------------|
D|----------------------------------| let each note ring


E|-------------------------------------|-------------------------------------|
B|-------------------------------------|-------------------------------------|
G|-------------------------------------|-------------------------------------|
D|-----------------------------------1-|-----------------------------------1-|
A|-000-0-0-0---000-0-0-0---0-1-3-1-0-1-|-000-0-0-0---000-0-0-0---0-1-3-1-0-1-|
D|-000-0-0-0---000-0-0-0---0-1-3-1-0---|-000-0-0-0---000-0-0-0---0-1-3-1-0-1-|

E|-------------------------------------|-------------------------------------|
B|-------------------------------------|-------------------------------------|
G|-------------------------------------|-------------------------------------|
D|-----------------------------------1~|-----------------------------------1-|
A|-000-0-0-0---000-0-0-0---0-1-3-1-0---|-000-0-0-0---000-0-0-0---0-1-3-1-0-1-|
D|-000-0-0-0---000-0-0-0---0-1-3-1-0---|-000-0-0-0---000-0-0-0---0-1-3-1-0-1-|


E|-------------|------------------------|--------------------|
B|-------------|------------------------|--------------------|
G|-------------|------------------------|--------------------|
D|-------------|------------------------|--------------------|
A|-111-333-555-|-5---8-0-1--0----00---5-|-5---8-0-1--0----00-|
D|-111-333-555-|-5---8-0-1--0----00---5-|-5---8-0-1--0----00-|
 PM... ... ...                   ..                       ..

E|---------------------|---------|------------------------------|
B|---------------------|---------|-*-----------------------*----|
G|--777777799933332222-|---------|--------------3---------------|
D|---------------------|---------|--5---------5---5-------------|
A|---------------------|-5---8-0-|-*--6-5-3-5-------6-5-3-5*(X8)|
D|---------------------|-5---8-0-|------------------------------|

E|-------------------------|
B|-------------------------|
G|-------------------------|
D|-------------------------|
A|-000-000-000-000-000-000-|
D|-000-000-000-000-000-000-|x4

E|-------------------------|--------------------|--------------------|
B|-------------------------|--------------------|--------------------|
G|-------------------------|--------------------|-777777799933332222-|
D|-------------------------|--------------------|--------------------|
A|--5---8-0-1--0----00---5-|-5---8-0-1--0----00-|--------------------|
D|--5---8-0-1--0----00---5-|-5---8-0-1--0----00-|--------------------|
 pm                 ..                       ..


E|---------------------|--------------------------------------|
B|---------------------|--------------------------------------|
G|---------------------|--------------------------------------|
D|---------------------|--------------------------------------|
A|--5---8-0-1--0----00-|-888810101010666688885555777733335555-|
D|--5---8-0-1--0----00-|--------------------------------------|
 pm                 ..


E|----------------------------------------------|-----------|
B|----------------------------------------------|-----------|
G|----------------------------------------------|-5/6\5/6\5-|
D|----------------------------------------------|-7/8\7/8\7-|
A|------------dont know how many times----------|-----------|
D|-00000000000000000000000000000000000000000000-|-----------|



E|------------------------------------|----------------------|
B|------*--------------------------*--|----------------------|
G|----3-------------------------------|----------------------|
D|----3---------------------3---1-----|--------------------3-|
A|--0---*-0-1-3-1-0-1-5-3-1--------*x2|--0-1-3-1-0-1-5-3-1---|
D|--0-----0-1-3-1-0-1-5-3-1---0-------|--0-1-3-1-0-1-5-3-1---|
  pm.     . . . . . . . . .   .          . . . . . . . . .

E|-------------------------------------|
B|-*-------------------------------*---|
G|----3--------------------------------|
D|----3--------------------------------|
A|-*0---0-1-3-1-0-1-5-3-1-3-3-1-0-1*x3-|
D|--0---0-1-3-1-0-1-5-3-1-3-3-1-0-1----|
  pm.   . . . . . . . . . . . . . .


E|---------------------------------|
B|---------------------------------|
G|--2h3p2----2-----------2---------|
D|-------5-4---3-2h3p2-3---3-2h3p2-|
A|---------------------------------|
D|---------------------------------|


E|----------------------------------------------------------------------|
B|----------------------------------------------------------------------|
G|--------------------1h2p1-------0h1p0-------------------------2-------|
D|----0---0---2-3---2-------2h3p2-------3h4p3-2h3p2-------5553332-------|
A|--------------------------------------------------555333------0-------|
E|--0---0---0-----0-----------------------------------------------------| X 4


    gtr 1 & 2
E|---------------------------------|----------------------------------------|
B|-*-------------------------------|----------------------------------------|
G|----------------0----------------|--------------0-----2h3p2---1-----------|
D|----0---2---3-------3--2-3-2-0-2-|--0---2---3-------3-------2---2h3p2-----|
A|-*-------------------------------|----------------------------------------|
E|--0---0---0---0---0--------------|0---0---0---0---0-----------------------|

E|---------------------------------|-------------------------------------------|
B|---------------------------------|--------------------------------------*----|
G|----------------0----------------|--------------0----------------2-0---------|
D|----0---2---3-------3--2-3-2-0-2-|--0---2---3-------3--3-2-5-3-2-----3-2-----|
A|---------------------------------|---------------------3----------------*(x2)|
E|--0---0---0---0---0--------------|0---0---0---0---0--------------------------|

    gtr 2
E|---------------------|
B|---------------------|
G|------------2-0------|
D|--3-2-5-3-2-----3-2--|
A|--3------------------|
E|---------------------|

            gtr 1
E|----------------------------------|
B|----------------------------------|
G|----------------------------------|
D|----------------------------------|
A|--0--0--0--------------------------|
E|--0--0--0--------------------------|
 |pm.  .  . gtr 2
E|----------------------------------|
B|------------15----------15--------|
G|----------------18----------18----|
D|--------------------17---------17-|
A|----------------------------------|
E|----------------------------------| let each note ring


E|---------------------------------------|-------------------------------------|
B|---------------------------------------|-------------------------------------|
G|---------------------------------------|-------------------------------------|
D|-------------------------------------1-|-----------------------------------1-|
A|-000-0-0-0----000-0-0-0----0-1-3-1-0-1-|-000-0-0-0---000-0-0-0---0-1-3-1-0-1-|
E|-000-0-0-0----000-0-0-0----0-1-3-1-0---|-000-0-0-0---000-0-0-0---0-1-3-1-0-1-|
 pm... . . .    ... . . .    . . . . .     ... . . .   ... . . .   . . . . .
E|-------------------------------------------------------------|
B|-------------------------------------------------------------|
G|-------------------------------------------------------------|
D|-------------------------------------------------------------|
A|-000-0-0-0------000-0-0-0------000-0-0-0-----000-0-0-0-------|
E|-000-0-0-0------000-0-0-0------000-0-0-0-----000-0-0-0-------|
 | ... . . .      ... . . .      ... . . .     ... . . .       |
E|-------------------------------------------------------------|
B|-------------------------------------------------------------|
G|-------------------------------------------------------------|
D|-----5-7-8-7-----------5-----------5-7-8-7-------------------|
A|-5----------8-5----7-8---8-3--3/5-----------8-5--------------|
E|----------------8-------------------------------8------------|

      Gtr 1
E|----------------|--------------------------------------|
B|----------------|*-------------------------------*-----|
G|----------------|--------------------------------------|
D|-----5----------|-5-7-8-7-------------5----------------|
A|-7-8---8-3--3/5-|*---------8-5----7-8---8-3-3/5--*(x2)-|
E|----------------|--------------8-----------------------|
 |    Gtr 2       |                                      |
E|----------------|--------------------------------------|
B|----------------|*-------------------------------*-----|
G|-----7----------|-7-910-9-------------7----------------|
D|-9-10--10-5-5/7-|---------10-7----910--10-5-5/7---(x2)-|
A|----------------|*-------------8-----------------*-----|
D|----------------|--------------------------------------|

      Gtr 1
E|-----------------------------------|------------------------------------|
B|-----------------------------------|*------------------------------*----|
G|-7-910-910-12-12/13------7---------|------------------------------------|
D|---------------------910--10-5-5/7-|-7-910-9--------------7-------------|
A|-----------------------------------|*----------10-7---910--10-5-5/7*(x2)|
D|-----------------------------------|---------------10-------------------|
 |    Gtr 2                          |                                    |
E|-----------------------------------|------------------------------------|
B|-----------------------------------|*------------------------------*----|
G|-----------------------------------|-5-7-8-7--------------5-------------|
D|-5-7-8-7-8-10-10/12------5---------|-----------8-5----7-8---8-3-3/5-----|
A|---------------------7-8---8-3-3/5-|*--------------8---------------*(x2)|
E|-----------------------------------|------------------------------------|
THE END

Tough Song to figure out
This is my first tab....let me know how it is

  Visit MetalTabs.com for more metal tablature

bottom separator

Contact Us | Privacy Policy | Disclaimer | Legal Notice
Copyright © 2001-2014 MetalTabs.com. All Rights Reserved.