top separator

Home

Forum

What's New

Submit a Tab

FAQ

Links

Contact Us

Link to Us

MuSpy.com

MetalTabs.com logo

Bands

0-9

A

B

C

D

E

F

G

H

I

J

K

L

M

N

O

P

Q

R

S

T

U

V

W

X

Y

Z

Search

What

Where
 

The Crown - "Under The Whip" Guitar Tab

Plain Text Version
More The Crown Tabs

Hits: 3480
Updated: 2005-08-09 16:47:56

 

By:

Woutjinho

sendpm.gif

email.gif

Important note
We did our best to reach The Crown and ask for their permission to publish this tab. Unfortunately they did not respond to our requests or we could not find a way to contact them. This tab is available online until The Crown tells us to take it down.


#----------------------------------PLEASE NOTE---------------------------------#
#This file is the author's own work and represents their interpretation of the #
#song. You may only use this file for private study, scholarship, or research. #
#Unless specified otherwise, this is NOT an official tab from the band members.#
#------------------------------------------------------------------------------#

  Visit MetalTabs.com for more metal tablature
  
Band:  The Crown
Album: Crowned Unholy
Song:  Under The Whip

Copyright (c)  Metal Blade Records 2004
Version 1.0 - 10-07'05

Transcribed By: Woutjinho
Email:          woutjinho@hotmail.com


.  - palm mute           /  - slide up to
\  - slide down to       ~  - vibrato
h  - hammer on           b  - Bend
p  - pull off            Suffixes for bend
t  - tap                 f  - full bend    h - half bend
ph - pinched harmonic    q  - quarter bend t - tap bend
*  - see comment         ^  - Hold bend    r release bend
x  - Stuccatto           ~  - vibrato bend
,  - slight palm mute    () - ghost note, sustained note
"  - tremolo note        <> - Trill

Tuning D G C F A D

Words and Music by The Crown
Arranged by Woutjinho
Transcribed by Woutjinho

 Intro
  Q=220
  C5 B5 G5 F#5  E5
 4/4
  Gtr I
                PM-------------------------------------------------|
|-------------|-----------------|-----------------|------------------|
|-------------|-----------------|-----------------|------------------|
|-------------|-----------------|-----------------|------------------|
|-5--4--------|-----------------|-----------------|------------------|
|-3--2--5--4--|-----------------|-----------------|------------------|
|-------3--2--|-0-2-3-0-2-3-0-2-|-3-0-2-3-0-2-3-0-|-2-3-0-2-3-0-2--3-|
|
| Gtr II
|-------------|-----------------|-----------------|------------------|
|-------------|-----------------|-----------------|------------------|
|-------------|-----------------|-----------------|------------------|
|-5--4--------|-----------------|-----------------|------------------|
|-3--2--5--4--|-2---------------|-----------------|-------------x\---|
|-------3--2--|-0---------------|-----------------|-------------x\---|


      A5                                                   C5 B5    F#5
    Gtrs I, II
    PM   PM------------------------------------------|
                                                        4x
||-----------------|-----------------|------------------||--------------|
||o----------------|-----------------|-----------------o||--------------|
||-----------------|-----------------|------------------||--------------|
||----2------------|-----------------|------------------||-5--4---------|
||o---0------------|-----------------|-----------------o||-3--2--5--4---|
||--0----0-2-3-0-2-|-3-0-2-3-0-2-3-0-|-2-3-0-2-3-0-2-3--||-------3--2---|


    E5                    Bb5E5
||----------------|-----------------||-|
||o---------------|----------------o||-|
||----------------|-----------------||-|
||----------------|-------3---------||-|
||o-2-2-2--2-2-2--|-2-2-2-1--2-2-2-o||-|
||--0-0-0--0-0-0--|-0-0-0----0-0-0--||-|


                                            Bb5E5
||----------------------------|------------------------||
||o---------------------------|-----------------------o||
||----------------------------|------------------------||
||----------------------------|-------------3----------||
||o-2-2-2-2-2-2--2-2-2-2-2-2--|-2-2-2-2-2-2-1--2-2-2--o||
||--0-0-0-0-0-0--0-0-0-0-0-0--|-0-0-0-0-0-0----0-0-0---||


 Verse
  PM------------------------------------------------|
|-----------------|-----------------|-----------------|
|-----------------|-----------------|-----------------|
|-----------------|-----------------|-----------------|
|-----------------|-----------------|-----------------|
|-----------------|-----------------|-----------------|
|-0-2-3-0-2-3-0-2-|-3-0-2-3-0-2-3-0-|-2-3-0-2-3-0-2-3-|


      A5                                                   C5 B5 G5 F#5
    PM   PM------------------------------------------|
                                                        3x
||-----------------|-----------------|------------------||--------------|
||o----------------|-----------------|-----------------o||--------------|
||-----------------|-----------------|------------------||--------------|
||----2------------|-----------------|------------------||-5--4---------|
||o---0------------|-----------------|-----------------o||-3--2--5--4---|
||--0----0-2-3-0-2-|-3-0-2-3-0-2-3-0-|-2-3-0-2-3-0-2-3--||-------3--2---|


    E5                    Bb5E5
||----------------|-----------------||-|
||o---------------|----------------o||-|
||----------------|-----------------||-|
||----------------|-------3---------||-|
||o-2-2-2--2-2-2--|-2-2-2-1--2-2-2-o||-|
||--0-0-0--0-0-0--|-0-0-0----0-0-0--||-|


                                            Bb5E5
||----------------------------|------------------------||
||o---------------------------|-----------------------o||
||----------------------------|------------------------||
||----------------------------|-------------3----------||
||o-2-2-2-2-2-2--2-2-2-2-2-2--|-2-2-2-2-2-2-1--2-2-2--o||
||--0-0-0-0-0-0--0-0-0-0-0-0--|-0-0-0-0-0-0----0-0-0---||


   Chorus
    E5
    Gtr I
     T        T        T        T          T         T        T
||--19-15p12-19-15p12-19-15p12-19-15p12-|-22--15p12-20-15p12-19-15p12-17--|
||o-------------------------------------|---------------------------------|
||--------------------------------------|---------------------------------|
||--------------------------------------|---------------------------------|
||o-------------------------------------|---------------------------------|
||--------------------------------------|---------------------------------|
|
|   Gtr II
||--------------------------------------|---------------------------------|
||o-------------------------------------|---------------------------------|
||--------------------------------------|---------------------------------|
||---2----------------------------------|-(2)-----------------------------|
||o--2----------------------------------|-(2)-----------------------------|
||---0----------------------------------|-(0)-----------------------------|


  C5
|--0h=7h12--0h=5h10--0h=7h|=12--0h=5h10--0h=7h12--0--|
|-------------------------|--------------------------|
|-------------------------|--------------------------|
|-------------------------|--------------------------|
|-------------------------|--------------------------|
|-------------------------|--------------------------|
|
|-------------------------|--------------------------|
|-------------------------|--------------------------|
|-------------------------|--------------------------|
|-------------------------|--------------------------|
|-10-10-10-10-10-10-10-10-|-10-10-10-10-10-10-10-10--|
|--8--8--8--8--8--8--8--8-|--8--8--8--8--8--8--8--8--|


  E5
   T        T        T        T          T         T        T
|-19-15p12-19-15p12-19-15p12-19-15p12-|-22--15p12-20-15p12-19-15p12-17--|
|-------------------------------------|---------------------------------|
|-------------------------------------|---------------------------------|
|-------------------------------------|---------------------------------|
|-------------------------------------|---------------------------------|
|-------------------------------------|---------------------------------|
|
|-------------------------------------|---------------------------------|
|-------------------------------------|---------------------------------|
|-------------------------------------|---------------------------------|
|--2----------------------------------|-(2)-----------------------------|
|--2----------------------------------|-(2)-----------------------------|
|--0----------------------------------|-(0)-----------------------------|


  C5                               B5   A5  G5       E5
|---0h=7h12--0h=5h10--0h=7h|=12--0h5h10-0h7h12-0--||--------------|
|--------------------------|---------------------o||--------------|
|--------------------------|----------------------||--------------|
|--------------------------|----------------------||-2------------|
|--------------------------|---------------------o||-2------2-----|
|--------------------------|----------------------||-0------0-----|
|
|--------------------------|----------------------||--------------|
|--------------------------|---------------------o||--------------|
|--------------------------|----------------------||--------------|
|--------------------------|----------------------||-2------------|
|-/10-10-10-10-10-10-10-10-|-10-10-9--9-7-7--5-5-o||-2------2-----|
|--/8--8--8--8--8--8--8--8-|--8--8-7--7-5-5--3-3--||-0------0-----|


 Bridge
  N.C.
         \1/  \1/  \1/  \1/    \2/  \2/  \2/  \2/  \3/  \3/  \3/  \3/
|-/17---(17)-(17)-(17)-(17)-|-(17)-(17)-(17)-(17)-(17)-(17)-(17)-(17)-|
|---------------------------|-----------------------------------------|
|---------------------------|-----------------------------------------|
|---------------------------|-----------------------------------------|
|---------------------------|-----------------------------------------|
|---------------------------|-----------------------------------------|
|
|   PM-----------------------------------------------------------------
|---------------------------|-----------------------------------------|
|---------------------------|-----------------------------------------|
|---------------------------|-----------------------------------------|
|---------------------------|-----------------------------------------|
|---------------------------|-----------------------------------------|
|---0-2-3-0-2-3-0-2---------|-3-0-2-3-0-2-3-0-------------------------|


  \2                 \1_________|
|------------------|---------------------|
|------------------|---------------------|
|------------------|---------------------|
|------------------|---------------------|
|------------------|-7---------(7)-------|
|-0----------------|---------------------|
|
|--------------------------------------|
|------------------|---------------------|
|------------------|---------------------|
|------------------|---------------------|
|------------------|---------------------|
|------------------|---------------------|
|-2--3-0-2-3-0-2-3-|-0---2-3-0--2--3-0-2-|


          \1/   \1/   \1/   \1/
|-/12---(12)--(12)--(12)--(12)--/12---|
|-------------------------------------|
|-------------------------------------|
|-------------------------------------|
|-------------------------------------|
|-------------------------------------|
|
|   PM---------------------------------
|-------------------------------------|
|-------------------------------------|
|-------------------------------------|
|-------------------------------------|
|-------------------------------------|
|---3-0---2-----3-----0-----2-----3-0-|


    \1/   \1/   \1/   \1/         \1/   \1/     \1/   \1/  \2     /      |
|-(12)--(12)--(12)--(12)--/12---(12)--(12)--|-(12)--(12)--12----(12)---(12)--|
|-------------------------------------------|--------------------------------|
|-------------------------------------------|--------------------------------|
|-------------------------------------------|--------------------------------|
|-------------------------------------------|--------------------------------|
|-------------------------------------------|--------------------------------|
|
|--------------------------------------------------------------------|
|-------------------------------------------|--------------------------------|
|-------------------------------------------|--------------------------------|
|-------------------------------------------|--------------------------------|
|-------------------------------------------|--------------------------------|
|-------------------------------------------|---------------------------12\--|
|---2-----3-----0-----2-----3-0---2-----3---|---0-----2----3--0---2--3--12\--|


 Verse
  Gtrs I, II
  PM------------------------------------------------|
|-----------------|-----------------|-----------------|
|-----------------|-----------------|-----------------|
|-----------------|-----------------|-----------------|
|-----------------|-----------------|-----------------|
|-----------------|-----------------|-----------------|
|-0-2-3-0-2-3-0-2-|-3-0-2-3-0-2-3-0-|-2-3-0-2-3-0-2-3-|


    A5                                                 C5 B5 G5 F#5
  PM   PM------------------------------------------|
|----------------|-----------------|-----------------|-------------|
|----------------|-----------------|-----------------|-------------|
|----------------|-----------------|-----------------|-------------|
|---2------------|-----------------|-----------------|-5--4--------|
|---0------------|-----------------|-----------------|-3--2--5--4--|
|-0----0-2-3-0-2-|-3-0-2-3-0-2-3-0-|-2-3-0-2-3-0-2-3-|-------3--2--|


    E5                       E5
||----------------|-----------------||-|
||o---------------|----------------o||-|
||----------------|-----------------||-|
||----------------|-------3---------||-|
||o-2-2-2--2-2-2--|-2-2-2-1--2-2-2-o||-|
||--0-0-0--0-0-0--|-0-0-0----0-0-0--||-|


                                            Bb5E5
||----------------------------|------------------------||
||o---------------------------|-----------------------o||
||----------------------------|------------------------||
||----------------------------|-------------3----------||
||o-2-2-2-2-2-2--2-2-2-2-2-2--|-2-2-2-2-2-2-1--2-2-2--o||
||--0-0-0-0-0-0--0-0-0-0-0-0--|-0-0-0-0-0-0----0-0-0---||


   Chorus
    E5
    Gtr I
     T        T        T        T          T         T        T
||--19-15p12-19-15p12-19-15p12-19-15p12-|-22--15p12-20-15p12-19-15p12-17--|
||o-------------------------------------|---------------------------------|
||--------------------------------------|---------------------------------|
||--------------------------------------|---------------------------------|
||o-------------------------------------|---------------------------------|
||--------------------------------------|---------------------------------|
|
|   Gtr II
||--------------------------------------|---------------------------------|
||o-------------------------------------|---------------------------------|
||--------------------------------------|---------------------------------|
||---2----------------------------------|-(2)-----------------------------|
||o--2----------------------------------|-(2)-----------------------------|
||---0----------------------------------|-(0)-----------------------------|


  C5
|--0h=7h12--0h=5h10--0h=7h|=12--0h=5h10--0h=7h12--0--|
|-------------------------|--------------------------|
|-------------------------|--------------------------|
|-------------------------|--------------------------|
|-------------------------|--------------------------|
|-------------------------|--------------------------|
|
|-------------------------|--------------------------|
|-------------------------|--------------------------|
|-------------------------|--------------------------|
|-------------------------|--------------------------|
|-10-10-10-10-10-10-10-10-|-10-10-10-10-10-10-10-10--|
|--8--8--8--8--8--8--8--8-|--8--8--8--8--8--8--8--8--|


  E5
   T        T        T        T          T         T        T
|-19-15p12-19-15p12-19-15p12-19-15p12-|-22--15p12-20-15p12-19-15p12-17--|
|-------------------------------------|---------------------------------|
|-------------------------------------|---------------------------------|
|-------------------------------------|---------------------------------|
|-------------------------------------|---------------------------------|
|-------------------------------------|---------------------------------|
|
|-------------------------------------|---------------------------------|
|-------------------------------------|---------------------------------|
|-------------------------------------|---------------------------------|
|--2----------------------------------|-(2)-----------------------------|
|--2----------------------------------|-(2)-----------------------------|
|--0----------------------------------|-(0)-----------------------------|


  C5                               B5   A5  G5
|---0h=7h12--0h=5h10--0h=7h|=12--0h5h10-0h7h12-0----||
|--------------------------|-----------------------o||
|--------------------------|------------------------||
|--------------------------|------------------------||
|--------------------------|-----------------------o||
|--------------------------|------------------------||
|
|--------------------------|------------------------||
|--------------------------|-----------------------o||
|--------------------------|------------------------||
|--------------------------|------------------------||
|-/10-10-10-10-10-10-10-10-|-10-10-9--9-7-7--5-5---o||
|--/8--8--8--8--8--8--8--8-|--8--8-7--7-5-5--3-3----||


 Bridge
  N.C.
|---------|---------|---------|-7S====|
|---------|---------|---------|-7S====|
|---------|---------|---------|-------|
|---------|---------|---------|-------|
|---------|---------|---------|-------|
|---------|---------|---------|-------|
|
|---------|---------|---------|-------|
|---------|---------|---------|-------|
|---------|---------|---------|-------|
|---------|---------|---------|-------|
|---------|---------|---------|-------|
|---------|---------|---------|-------|


   Interlude
    E5
||--12-12-12-12-12-12-12-12-|-12-12-12-12-12-12-12-12-|
||o-12-12-12-12-12-12-12-12-|-12-12-12-12-12-12-12-12-|
||--------------------------|-------------------------|
||--------------------------|-------------------------|
||o-------------------------|-------------------------|
||--------------------------|-------------------------|
|
||--------------------------|-------------------------|
||o-------------------------|-------------------------|
||--------------------------|-------------------------|
||--------------------------|-------------------------|
||o--2--2--2--2--2--2--2--2-|--2--2--2--2--2--2--2--2-|
||---0--0--0--0--0--0--0--0-|--0--0--0--0--0--0--0--0-|


  C5
|-10-10-10-10-10-10-10-10-|-10-10-10-10-10-10-10-10--|
|-10-10-10-10-10-10-10-10-|-10-10-10-10-10-10-10-10--|
|-------------------------|--------------------------|
|-------------------------|--------------------------|
|-------------------------|--------------------------|
|-------------------------|--------------------------|
|
|-------------------------|--------------------------|
|-------------------------|--------------------------|
|-------------------------|--------------------------|
|-------------------------|--------------------------|
|-10-10-10-10-10-10-10-10-|-10-10-10-10-10-10-10-10--|
|--8--8--8--8--8--8--8--8-|--8--8--8--8--8--8--8--8--|


  1.
  E5
|-12-12-12-12-12-12-12-12-|-12-12-12-12-12-12-12-12-|
|-12-12-12-12-12-12-12-12-|-12-12-12-12-12-12-12-12-|
|-------------------------|-------------------------|
|-------------------------|-------------------------|
|-------------------------|-------------------------|
|-------------------------|-------------------------|
|
|-------------------------|-------------------------|
|-------------------------|-------------------------|
|-------------------------|-------------------------|
|-------------------------|-------------------------|
|--2--2--2--2--2--2--2--2-|--2--2--2--2--2--2--2--2-|
|--0--0--0--0--0--0--0--0-|--0--0--0--0--0--0--0--0-|


  B5
|-10-10-10-10-10-10-10-10-|-10-10-10-10-10-10-10-10--||
|-10-10-10-10-10-10-10-10-|-10-10-10-10-10-10-10-10-o||
|-------------------------|--------------------------||
|-------------------------|--------------------------||
|-------------------------|-------------------------o||
|-------------------------|--------------------------||
|
|-------------------------|--------------------------||
|-------------------------|-------------------------o||
|-------------------------|--------------------------||
|-------------------------|--------------------------||
|--9--9--9--9--9--9--9--9-|--9--9--9--9--9--9--9--9-o||
|--7--7--7--7--7--7--7--7-|--7--7--7--7--7--7--7--7--||


  2.
  E5
|-12-12-12-12-12-12-12-12-|-12-12-12-12-12-12-12-12-|
|-12-12-12-12-12-12-12-12-|-12-12-12-12-12-12-12-12-|
|-------------------------|-------------------------|
|-------------------------|-------------------------|
|-------------------------|-------------------------|
|-------------------------|-------------------------|
|
|-------------------------|-------------------------|
|-------------------------|-------------------------|
|-------------------------|-------------------------|
|-------------------------|-------------------------|
|--2--2--2--2--2--2--2--2-|--2--2--2--2--2--2--2--2-|
|--0--0--0--0--0--0--0--0-|--0--0--0--0--0--0--0--0-|


  B5
|-10-10-10-10-10-10-10-10-|-10\-------------|
|-10-10-10-10-10-10-10-10-|-10\----8--------|
|-------------------------|----------9b10---|
|-------------------------|-----------------|
|-------------------------|-----------------|
|-------------------------|-----------------|
|
|-------------------------|-----------------|
|-------------------------|-----------------|
|-------------------------|-----------------|
|-------------------------|-----------------|
|--9--9--9--9--9--9--9--9-|--x\------7b9----|
|--7--7--7--7--7--7--7--7-|--x\----8--------|


    E5/B                          A5B5  C5
    Gtrs I, II
      PM|   PM|   PM    PM|   PM|          PM--------------------------|
||------------------|-----------------|----------------|------------------|
||o-----------------|-----------------|----------------|------------------|
||------------------|-----------------|----------------|------------------|
||--2-----------2---|-2-----------2-4-|-5--------------|------------------|
||o-2-----2-----2---|-2-----2-----0-2-|-3--3-3-3-3-3-3-|-3-3-3-3-3-3-3-3--|
||----0-0---0-0---0-|---0-0---0-0-----|----------------|------------------|


  1.
  E5/B                          A5B5  D5
    PM|   PM|   PM    PM|   PM|          PM--------------------------|
|-----------------|-----------------|----------------|------------------||
|-----------------|-----------------|----------------|-----------------o||
|-----------------|-----------------|----------------|------------------||
|-2-----------2---|-2-----------2-4-|-7--------------|------------------||
|-2-----2-----2---|-2-----2-----0-2-|-5--5-5-5-5-5-5-|-5-5-5-5-5-5-5-5-o||
|---0-0---0-0---0-|---0-0---0-0-----|----------------|------------------||


  2.
  E5/B                          A5B5  D5
  Gtr I
    PM|   PM|   PM    PM|   PM|          PM--------|
|-----------------|-----------------|----------------|-7S==============|
|-----------------|-----------------|----------------|-7S==============|
|-----------------|-----------------|----------------|-----------------|
|-2-----------2---|-2-----------2-4-|-7--------------|-----------------|
|-2-----2-----2---|-2-----2-----0-2-|-5--5-5-5-5-5-5-|-----------------|
|---0-0---0-0---0-|---0-0---0-0-----|----------------|-----------------|
|
| Gtr II
|   PM|   PM|   PM    PM|   PM|          PM--------------------------|
|-----------------|-----------------|----------------|-----------------|
|-----------------|-----------------|----------------|-----------------|
|-----------------|-----------------|----------------|-----------------|
|-2-----------2---|-2-----------2-4-|-7--------------|-----------------|
|-2-----2-----2---|-2-----2-----0-2-|-5--5-5-5-5-5-5-|-5-5-5-5-5-5-5-5-|
|---0-0---0-0---0-|---0-0---0-0-----|----------------|-----------------|


    E5
||--12-12-12-12-12-12-12-12-|-12-12-12-12-12-12-12-12-|
||o-12-12-12-12-12-12-12-12-|-12-12-12-12-12-12-12-12-|
||--------------------------|-------------------------|
||--------------------------|-------------------------|
||o-------------------------|-------------------------|
||--------------------------|-------------------------|
|
||--------------------------|-------------------------|
||o-------------------------|-------------------------|
||--------------------------|-------------------------|
||--------------------------|-------------------------|
||o--2--2--2--2--2--2--2--2-|--2--2--2--2--2--2--2--2-|
||---0--0--0--0--0--0--0--0-|--0--0--0--0--0--0--0--0-|


  C5
|-10-10-10-10-10-10-10-10-|-10-10-10-10-10-10-10-10--|
|-10-10-10-10-10-10-10-10-|-10-10-10-10-10-10-10-10--|
|-------------------------|--------------------------|
|-------------------------|--------------------------|
|-------------------------|--------------------------|
|-------------------------|--------------------------|
|
|-------------------------|--------------------------|
|-------------------------|--------------------------|
|-------------------------|--------------------------|
|-------------------------|--------------------------|
|-10-10-10-10-10-10-10-10-|-10-10-10-10-10-10-10-10--|
|--8--8--8--8--8--8--8--8-|--8--8--8--8--8--8--8--8--|


  1.
  E5
|-12-12-12-12-12-12-12-12-|-12-12-12-12-12-12-12-12-|
|-12-12-12-12-12-12-12-12-|-12-12-12-12-12-12-12-12-|
|-------------------------|-------------------------|
|-------------------------|-------------------------|
|-------------------------|-------------------------|
|-------------------------|-------------------------|
|
|-------------------------|-------------------------|
|-------------------------|-------------------------|
|-------------------------|-------------------------|
|-------------------------|-------------------------|
|--2--2--2--2--2--2--2--2-|--2--2--2--2--2--2--2--2-|
|--0--0--0--0--0--0--0--0-|--0--0--0--0--0--0--0--0-|


  B5
|-10-10-10-10-10-10-10-10-|-10-10-10-10-10-10-10-10--||
|-10-10-10-10-10-10-10-10-|-10-10-10-10-10-10-10-10-o||
|-------------------------|--------------------------||
|-------------------------|--------------------------||
|-------------------------|-------------------------o||
|-------------------------|--------------------------||
|
|-------------------------|--------------------------||
|-------------------------|-------------------------o||
|-------------------------|--------------------------||
|-------------------------|--------------------------||
|--9--9--9--9--9--9--9--9-|--9--9--9--9--9--9--9--9-o||
|--7--7--7--7--7--7--7--7-|--7--7--7--7--7--7--7--7--||


  2.
|-12-12-12-12-12-12-12-12-|-12-12-12-12-12-12-12-12-|
|-12-12-12-12-12-12-12-12-|-12-12-12-12-12-12-12-12-|
|-------------------------|-------------------------|
|-------------------------|-------------------------|
|-------------------------|-------------------------|
|-------------------------|-------------------------|
|
|-------------------------|-------------------------|
|-------------------------|-------------------------|
|-------------------------|-------------------------|
|-------------------------|-------------------------|
|--2--2--2--2--2--2--2--2-|--2--2--2--2--2--2--2--2-|
|--0--0--0--0--0--0--0--0-|--0--0--0--0--0--0--0--0-|


                                                     3/4
                                                      PM  PM  PM
|-10-10-10-10-10-10-10-10-|-10-10-10-10-10-10-10-10-|-------------|
|-10-10-10-10-10-10-10-10-|-10-10-10-10-10-10-10-10-|-------------|
|-------------------------|-------------------------|-------------|
|-------------------------|-------------------------|-------------|
|-------------------------|-------------------------|---9---9---9-|
|-------------------------|-------------------------|-0-7-0-7-0-7-|
|
|                                        PM           PM  PM  PM
|-------------------------|-------------------------|-------------|
|-------------------------|-------------------------|-------------|
|-------------------------|-------------------------|-------------|
|-------------------------|-------------------------|-------------|
|--9--9--9--9--9--9--9--9-|--9--9--9--9-----9-------|---9---9---9-|
|--7--7--7--7--7--7--7--7-|--7--7--7--7--0--7-------|-0-7-0-7-0-7-|


 Pre-Verse
 4/4
  PM-------------------------------------------------|
|-----------------|-----------------|-------------------|
|-----------------|-----------------|-------------------|
|-----------------|-----------------|-------------------|
|-----------------|-----------------|-------------------|
|-----------------|-----------------|-------------------|
|-0-2-3-0-2-3-0-2-|-3-0-2-3-0-2-3-0-|-2-3-0-2-3-0-2--3--|
|
|-----------------|-----------------|-------------------|
|-----------------|-----------------|-------------------|
|-----------------|-----------------|-------------------|
|-----------------|-----------------|-------------------|
|-2---------------|-----------------|-------------x\----|
|-0---------------|-----------------|-------------x\----|


  PM------------------------------|
|-----------------|-----------------|------------|
|-----------------|-----------------|------------|
|-----------------|-----------------|------------|
|-----------------|-----------------|---------3--|
|-----------------|-----------------|-----x\--1--|
|-0-2-3-0-2-3-0-2-|-3-0-2-3-0-2-3-0-|-----x\-----|
|
|-----------------|-----------------|------------|
|-----------------|-----------------|------------|
|-----------------|-----------------|------------|
|-----------------|-----------------|---------3--|
|-2---------------|-----------------|-----x\--1--|
|-0---------------|-----------------|-----x\-----|


   Chorus
     T        T        T        T          T         T        T
||--19-15p12-19-15p12-19-15p12-19-15p12-|-22--15p12-20-15p12-19-15p12-17--|
||o-------------------------------------|---------------------------------|
||--------------------------------------|---------------------------------|
||--------------------------------------|---------------------------------|
||o-------------------------------------|---------------------------------|
||--------------------------------------|---------------------------------|
|
||--------------------------------------|---------------------------------|
||o-------------------------------------|---------------------------------|
||--------------------------------------|---------------------------------|
||---2----------------------------------|-(2)-----------------------------|
||o--2----------------------------------|-(2)-----------------------------|
||---0----------------------------------|-(0)-----------------------------|


|--0h=7h12--0h=5h10--0h=7h|=12--0h=5h10--0h=7h12--0--|
|-------------------------|--------------------------|
|-------------------------|--------------------------|
|-------------------------|--------------------------|
|-------------------------|--------------------------|
|-------------------------|--------------------------|
|
|-------------------------|--------------------------|
|-------------------------|--------------------------|
|-------------------------|--------------------------|
|-------------------------|--------------------------|
|-10-10-10-10-10-10-10-10-|-10-10-10-10-10-10-10-10--|
|--8--8--8--8--8--8--8--8-|--8--8--8--8--8--8--8--8--|


   T        T        T        T          T         T        T
|-19-15p12-19-15p12-19-15p12-19-15p12-|-22--15p12-20-15p12-19-15p12-17--|
|-------------------------------------|---------------------------------|
|-------------------------------------|---------------------------------|
|-------------------------------------|---------------------------------|
|-------------------------------------|---------------------------------|
|-------------------------------------|---------------------------------|
|
|-------------------------------------|---------------------------------|
|-------------------------------------|---------------------------------|
|-------------------------------------|---------------------------------|
|--2----------------------------------|-(2)-----------------------------|
|--2----------------------------------|-(2)-----------------------------|
|--0----------------------------------|-(0)-----------------------------|


|---0h=7h12--0h=5h10--0h=7h|=12--0h5h10-0h7h12-0----||
|--------------------------|-----------------------o||
|--------------------------|------------------------||
|--------------------------|------------------------||
|--------------------------|-----------------------o||
|--------------------------|------------------------||
|
|--------------------------|------------------------||
|--------------------------|-----------------------o||
|--------------------------|------------------------||
|--------------------------|------------------------||
|-/10-10-10-10-10-10-10-10-|-10-10-9--9-7-7--5-5---o||
|--/8--8--8--8--8--8--8--8-|--8--8-7--7-5-5--3-3----||


 Outro
   /4_________________________________________|
|-19-----------------|-(19)---------------|-(19)---------------|
|--------------------|--------------------|--------------------|
|--------------------|--------------------|--------------------|
|--------------------|--------------------|--------------------|
|--------------------|--------------------|--------------------|
|--------------------|--------------------|--------------------|
|
|  PM--------------------------------------------------------|
|--------------------|--------------------|--------------------|
|--------------------|--------------------|--------------------|
|--------------------|--------------------|--------------------|
|--------------------|--------------------|--------------------|
|--------------------|--------------------|--------------------|
|--0---2-3-0-2-3-0-2-|---3--0-2-3-0-2-3-0-|---2--3-0-2-3-0-2-3-|


|-------------------------------------------------|
|-------------------------------------------------|
|-------------------------------------------------|
|-19p17p16p14-19p17p16p14-------------17p16p14p12-|
|-------------------------17p15p14p12-------------|
|-------------------------------------------------|
|
|  PM                PM----------------------------
|-------------------------------------------------|
|-------------------------------------------------|
|-------------------------------------------------|
|--------2----------------------------------------|
|--------0----------------------------------------|
|--0-----------------0-----2-----3-----0-----2----|


                                                   ~~~~
|-----------------------------------|------------------------------------|
|-----------------------------------|------------------------------------|
|-------------------------14---14---|------------[14]--------------------|
|-------------17p16p14p12-----------|-17p16p==14--------17---16---14-----|
|-15p14p12p10-----------------------|------------------------------------|
|-----------------------------------|------------------------------------|
|
|--------------------------------------------------------------------|
|-----------------------------------|------------------------------------|
|-----------------------------------|------------------------------------|
|-----------------------------------|------------------------------------|
|-----------------------------------|------------------------------------|
|-----------------------------------|------------------------------------|
|--3-----0-----2-----3-----0-2--3-0-|--2----3------0--2--3-0----2----3---|


|------------------|---------------------|
|-------------17---|-(17)----------15-13-|
|-12---------------|---------------------|
|------------------|---------------------|
|------------------|---------------------|
|------------------|---------------------|
|
|  PM   PM-------|        PM|  PM|     PM-
|------------------|---------------------|
|------------------|---------------------|
|------------------|---------------------|
|----2-------------|---------------------|
|----0-------------|---------------------|
|--0----0-2-3--0-3-|------0-3--0-3-----0-|


      ~~~~~~~~~~~~~~~
|---------------------|-17----19----20---|
|-13h17---------(17)--|------------------|
|---------------------|------------------|
|---------------------|------------------|
|---------------------|------------------|
|---------------------|------------------|
|
|----|   PM|  PM|        PM|   PM|   PM|
|---------------------|------------------|
|---------------------|------------------|
|---------------------|------------------|
|---------------------|------------------|
|---------------------|------------------|
|-----3--0-3--0---3---|--0-3---0-3---0-3-|


|-(20)-20h22------(22)-24---|-(24)-22---24p22p20----19-|-(19)--17----15-----|
|---------------------------|--------------------------|--------------------|
|---------------------------|--------------------------|--------------------|
|---------------------------|--------------------------|--------------------|
|---------------------------|--------------------------|--------------------|
|---------------------------|--------------------------|--------------------|
|
|   PM        PM----------|         PM|        PM|   PM--|      PM|   PM|
|---------------------------|--------------------------|--------------------|
|---------------------------|--------------------------|--------------------|
|---------------------------|--------------------------|--------------------|
|----------2----------------|--------------------------|--------------------|
|----------0----------------|--------------------------|--------------------|
|---0---------0-2---3---0-3-|-------0-3--------0-3---0-|---3----0-3---0-3---|


|-------------------------------------15p14p12p10-|
|-------------------------17p15p13p12-------------|
|-16p14p12p11-19p17p16p14-------------------------|
|-------------------------------------------------|
|-------------------------------------------------|
|-------------------------------------------------|
|
|  PM---|            PM---|            PM---|
|-------------------------------------------------|
|-------------------------------------------------|
|-------------------------------------------------|
|-------------------------------------------------|
|-------------------------------------------------|
|--0-----3-----------0-----3-----------0-----3----|


|-17p15p14p12-19p17p15p14-20p19p17p15-22p20p19p17-|
|-------------------------------------------------|
|-------------------------------------------------|
|-------------------------------------------------|
|-------------------------------------------------|
|-------------------------------------------------|
|
|-------------------------------------------------|
|-------------------------------------------------|
|-------------------------------------------------|
|--5-----------4----------------------------------|
|--3-----------2-----------5-----------4----------|
|--------------------------3-----------2----------|


            \1/          \1/         \1/     \1/
|-24------(24)-------|-(24)--------(24)----(24)----|
|--------------------|-----------------------------|
|--------------------|-----------------------------|
|--------------------|-----------------------------|
|--------------------|-----------------------------|
|--------------------|-----------------------------|
|
|--------------------|-----------------------------|
|--------------------|-----------------------------|
|--------------------|-----------------------------|
|--------------------|-----------3-----------------|
|--2-2-2----2---2-2--|---2---2-2-1-------2---2---2-|
|--0-0-0----0---0-0--|---0---0-0---------0---0---0-|


    \1/     \1/    \1/     \1/      \1/     \1/     \1/     \1/
|-(24)----(24)---(24)----(24)---|-(24)----(24)----(24)----(24)----|
|-------------------------------|---------------------------------|
|-------------------------------|---------------------------------|
|-------------------------------|---------------------------------|
|-------------------------------|---------------------------------|
|-------------------------------|---------------------------------|
|
|-------------------------------|---------------------------------|
|-------------------------------|---------------------------------|
|-------------------------------|---------------------------------|
|-------------------------------|---------------3-----------------|
|---2---2---2------2---2---2----|---2---2---2---1-------2---2---2-|
|---0---0---0------0---0---0----|---0---0---0-----------0---0---0-|


    \1/         \1/      \1/         \1/
|-(24)--------(24)-----(24)--------(24)-----|
|-------------------------------------------|
|-------------------------------------------|
|-------------------------------------------|
|-------------------------------------------|
|-------------------------------------------|
|
|-------------------------------------------|
|-------------------------------------------|
|-------------------------------------------|
|-------------------------------------------|
|---2---2-2-2---2---2----2---2-2-2---2---2--|
|---0---0-0-0---0---0----0---0-0-0---0---0--|


    \1/         \1/       \1/     \1/
|-(24)--------(24)------(24)----(24)----|
|---------------------------------------|
|---------------------------------------|
|---------------------------------------|
|---------------------------------------|
|---------------------------------------|
|
|---------------------------------------|
|---------------------------------------|
|---------------------------------------|
|---------------------3-----------------|
|---2---2-2-2---2---2-1-------2---2---2-|
|---0---0-0-0---0---0---------0---0---0-|


    \1/         \1/      \1/         \1/
|-(24)--------(24)-----(24)--------(24)-----|
|-------------------------------------------|
|-------------------------------------------|
|-------------------------------------------|
|-------------------------------------------|
|-------------------------------------------|
|
|-------------------------------------------|
|-------------------------------------------|
|-------------------------------------------|
|-------------------------------------------|
|---2---2-2-2---2---2----2---2-2-2---2---2--|
|---0---0-0-0---0---0----0---0-0-0---0---0--|


    \1/         \1/       \1/     \1/       \1/
|-(24)--------(24)------(24)----(24)----|-(24)---(24)\------*|
|---------------------------------------|-------------------*|
|---------------------------------------|-------------------*|
|---------------------------------------|-------------------*|
|---------------------------------------|-------------------*|
|---------------------------------------|-------------------*|
|
|---------------------------------------|-------------------*|
|---------------------------------------|-------------------*|
|---------------------------------------|-------------------*|
|---------------------3-----------------|-------------------*|
|---2---2-2-2---2---2-1-------2---2---2-|---2---------------*|
|---0---0-0-0---0---0---------0---0---0-|---0---------------*|

http://www.powertabs.net

  Visit MetalTabs.com for more metal tablature

bottom separator

Contact Us | Privacy Policy | Disclaimer | Legal Notice
Copyright © 2001-2014 MetalTabs.com. All Rights Reserved.