top separator

Home

Forum

What's New

Submit a Tab

FAQ

Links

Contact Us

Link to Us

MetalTabs.com logo

Bands

0-9

A

B

C

D

E

F

G

H

I

J

K

L

M

N

O

P

Q

R

S

T

U

V

W

X

Y

Z

Search

What

Where
 

Mourning Beloveth - "Nothing (The March Of Death)" Bass Tab

Plain Text Version
More Mourning Beloveth Tabs

Hits: 2845
Rated: 5.00 out of 5 (3 votes)
Updated: 2006-11-07 06:25:50

 

By:

Paddy

sendpm.gif

email.gif

Important note
This tab is available online because we obtained explicit permission from Mourning Beloveth or their label.


#----------------------------------PLEASE NOTE---------------------------------#
#This file is the author's own work and represents their interpretation of the #
#song. You may only use this file for private study, scholarship, or research. #
#Unless specified otherwise, this is NOT an official tab from the band members.#
#------------------------------------------------------------------------------#

  Visit MetalTabs.com for more metal tablature
  
================================================================================
                       M O U R N I N G   B E L O V E T H

                                       -

             N O T H I N G   (T H E   M A R C H   O F   D E A T H)
================================================================================


                               A MURDEROUS CIRCUS
                            (c) Grau Records - 2005
                        http://www.mourningbeloveth.com/


                              Tune Down 1 & 1/2 Steps
                                    C# F# B E

                                 Tempo =  80 BPM
                              Time Signature =  6/4



                          -----------------------------
                                 Transcribed by

                                 PADDY MCMULLAN
                           stinkypoohpants@yahoo.co.uk

                                   Version 1.0
                             -----------------------

                             Tablature Symbols Used:


 p         -  Pull-Off
 h         -  Hammer-On
 (/)       -  Legato Slide (Blank space indicates length of slide)
 \         -  Slide Down to/Down From (Blank space indicates length of slide)
 /         -  Slide Up To/Up From (Blank space indicates length of slide)
 ( )       -  Ghost Note/Tied Note/Implied Note
 *         -  Staccato note


================================================================================
Rest for 8 bars
================================================================================

================================================================================
Riff 1: (Play once through)
================================================================================


1                              2
||-----------------------------|-------------------------------|
||-----------------------------|-------------------------------|
||--0--------0----0------------|-------------------------------|
||-----------------------------|--0--------0----0------0--0----|

3                               4
|-------------------------------|-------------------------------|
|-------------------------------|-------------------------------|
|-------------------------------|-------------------------------|
|--1--------1----1------1--1----|--0--------0----0------0--0----|

5                             6
|-----------------------------|-------------------------------|
|-----------------------------|-------------------------------|
|--0--------0----0------------|-------------------------------|
|-----------------------------|--0--------0----0------0--0----|

7                               8
|-------------------------------|-------------------------------|
|-------------------------------|-------------------------------|
|-------------------------------|-------------------------------|
|--1--------1----1------1--1----|--0--------0----0------0--0----|

9                                10
|--------------------------------|-------------------------------|
|--------------------------------|-------------------------------|
|--0--------0----0--2--3----0----|-------------------------------|
|--------------------------------|--0--------0----0--------0--1--|

11                              12
|-------------------------------|--------------------------------|
|-------------------------------|--------------------------------|
|-------------------------------|--------------5--7------8--7----|
|--1--------1----1--------1--1--|--0--------0--------------------|

13                                14
|---------------------------------|------------------------------|
|---------------------------------|------------------------------|
|--0--------0----0----2--0--3--5--|--7----------5--7--------7----|
|---------------------------------|------------------------------|

15                                16
|---------------------------------|--------------------------------|
|---------------------------------|--------------------------------|
|--8--------8----8----10--8--8----|--7--8--7------5--7--------7----|
|---------------------------------|--------------------------------|

17                                 18
|----------------------------------|----------------------------------|
|----------------------------------|----------------------------------|
|--0--------0----0--2--3--0--3--5--|--7------7--7--5--7------7--5--7--|
|----------------------------------|----------------------------------|

19                                 20
|----------------------------------|-----------------------------------|
|----------------------------------|-----------------------------------|
|--8------8--8----8----10--8--8----|--7--8--7----7--5--7------7--7--5--|
|----------------------------------|-----------------------------------|

21                               22
|--------------------------------|------------------------------|
|--------------------------------|------------------------------|
|--0--------0----0----2--0--3----|--7----------5--7------7------|
|--------------------------------|------------------------------|

23                                24
|---------------------------------|----------------------------------||
|---------------------------------|----------------------------------||
|--8--------8----8----10--8--8----|--7--8--7----7--5--7------7--7----||
|---------------------------------|----------------------------------||



================================================================================
Riff 2: (Play 7 times)
================================================================================


||--------------------------------|--------------------------------|
||--------------------------------|--------------------------------|
||--0------0--0----0------0--0----|--------------------------------|
||--------------------------------|--0------0--0----0------0--0----|


|--------------------------------|--------------------------------||
|--------------------------------|--------------------------------||
|--------------------------------|--------------------------------||
|--1------1--1----1------1--1----|--0------0--0----0------0--0----||



After the second repeat the tempo increases to 85 Bpm



================================================================================
Riff 3: Play 4 times
================================================================================


| |-------------R --------|----------------------|-------------R --------|
|4|--*----------E --------|--*-------------------|--*----------E --------|
|/|--0--0--0--0-S -0------|--0--5--7--8----------|--0--0--0--0-S -0------|
|4|-------------T --------|----------------------|-------------T --------|

               |_3_|          //       Bar 4        \\
|-----------------------------|-----------------------|
|-----*-----------------------|--*--------------------|
|--0--5--7--8--7h8p7-5--3--5--|--0--0--0--2----3------|
|-----------------------------|-----------------------|


|------------------------|---------------------------|
|------------------------|---------3--3---(3/5)--3-2-|
|--0--8--7--5----7----0--|---------------------------|
|------------------------|--1------------------------|


|-------------------------| |
|-------------------------|*|
|-------2/ --7h8-7-5-7----|*|
|--0----------------------| |



After the first time, replace the first bar with the 4th bar



================================================================================
Riff 4: Play 4 times  [ Tempo = 98 Bpm ]
================================================================================


||------------------------|------------------------|
||------------------------|------------------------|
||--0--0--2--3----3----3--|--0--0--2--3----3----2--|
||------------------------|------------------------|


|-----------------------|-------------------------| |
|-----------------------|-------------------------|*|
|-----------------------|-------7--5--5--3--3--2--|*|
|--3------3--3----3--3--|--0----------------------| |



================================================================================
Riff 5: Play 8 times
================================================================================


                   |_3_|
||--------------------------|----------------------------| |
||--------------------------|----------------------------|*|
||--0------0----2--0h2p0----|-------------------------0--|*|
||-----------------------4--|--(4)--0--0--0--0--0--0-----| |



================================================================================
Play riff 4 four times
================================================================================

================================================================================
RIff 6:  [ Tempo = 75 Bpm ]
================================================================================


| |-----------------------| |--------------------------------|
|4|-----------------------|5|-----------------------2--------|
|/|--0----0--3-------0----|/|--0--0--0--0--0--0--0-----3--2--|
|4|-------------1---------|4|--------------------------------|


| |-----------------------| |--------------------------------| |
|4|-----------------------|5|--------------------------------|*|
|/|--0----0--3-------0----|/|--0--0--0--0--0--5--5--8--8--8--|*|
|4|-------------1---------|4|--------------------------------| |



After the last repeat, hold the following note for four bars:


| |---------||
|4|---------||
|/|--0------||
|4|---------||



================================================================================
Riff 7: (Play 27 times) [ Tempo = 50 Bpm ]
================================================================================


| |-----------------------| |---------------------|---------------------|
|6|-----------------------|4|---------------------|---------------------|
|/|--(0)------------0--8--|/|--8------------0--7--|--7------------0--8--|
|4|-----------------------|4|---------------------|---------------------|


|-------------------------| |----------------------------------| |
|-------------------------|6|----------------------------------|*|
|--8--(8)\-3--5--5--------|/|--(5)----1--3--0------------0--8--|*|
|-------------------------|4|----------------------------------| |



================================================================================
End
================================================================================


Tab summary:        Riff 1 x 1
                    Riff 2 x 7
                    Riff 3 x 4
                    Riff 4 x 4
                    Riff 5 x 8
                    Riff 4 x 4
                    Riff 6 x 6
                    Riff 7 x 27

                    End

  Visit MetalTabs.com for more metal tablature

bottom separator

Contact Us | Privacy Policy | Disclaimer | Legal Notice
Copyright © 2001-2014 MetalTabs.com. All Rights Reserved.