top separator

Home

Forum

What's New

Submit a Tab

FAQ

Links

Contact Us

Link to Us

MuSpy.com

MetalTabs.com logo

Bands

0-9

A

B

C

D

E

F

G

H

I

J

K

L

M

N

O

P

Q

R

S

T

U

V

W

X

Y

Z

Search

What

Where
 

Despond - "Grief" Bass Tab

Plain Text Version
More Despond Tabs

Hits: 2790
Rated: 5.00 out of 5 (2 votes)
Updated: 2006-11-07 06:22:35

 

By:

Paddy

sendpm.gif

email.gif

Important note
This tab is available online because we obtained explicit permission from Despond or their label.


#----------------------------------PLEASE NOTE---------------------------------#
#This file is the author's own work and represents their interpretation of the #
#song. You may only use this file for private study, scholarship, or research. #
#Unless specified otherwise, this is NOT an official tab from the band members.#
#------------------------------------------------------------------------------#

  Visit MetalTabs.com for more metal tablature
  
================================================================================
                           D   E   S   P   O   N   D

                                       -

                               G   R   I   E   F
================================================================================


			    SUPREME FUNERAL ORATION
		           (c) Haceldama Records 2003
                             http://despond.free.fr/


                               Tune Down 2 Steps
			           C F A# D#

			         Tempo = 70 BPM
		              Time Signature = 4/4



                          -----------------------------
		                 Transcribed by

		                 PADDY MCMULLAN
                           stinkypoohpants@yahoo.co.uk

                                   Version 1.0
                             -----------------------

		             Tablature Symbols Used:


 P.M.. ... -  Palm Mute
 h         -  Hammer-on
 p         -  Pull-off
 \         -  Slide Down to/Down From
 /         -  Slide Up to/Up From
 ( / )     -  Legato Slide
 ( )       -  Ghost Note/Tied Note/Implied Note


================================================================================
Riff 1: (Play 7 times)
================================================================================


||-------------------|-----------------------|-------------------|
||-------------------|-----------------------|-------------------|
||-------------------|-----------------------|-------------------|
||--2----------------|--2------------(2\ 1)--|--1----------------|


|-------------------| |
|-------------------|*|
|-------------------|*|
|--1----------------| |



================================================================================
Rest for 8 bars, then play riff 1 four more times
================================================================================

================================================================================
Rest for 8 bars
================================================================================

================================================================================
Riff 2: (Play 2 times)
================================================================================


||--------------------|--------------------|---------------------|
||--------------------|--------------------|---------------------|
||--------------------|--------------------|---------------------|
||--2------------2----|--2------------2----|--2--------2----3----|


|-----------------------|--------------------|--------------------|
|-----------------------|--------------------|--------------------|
|-------5----4--5--4----|--------------------|--------------------|
|--3--------------------|--2------------2----|--2------------2----|


|---------------------|-----------------------| |
|---------------------|-----------------------|*|
|--4--------4----3----|--3--------------------|*|
|---------------------|-------5----4--5--4----| |



================================================================================
Riff 3: (Play 3 times)
================================================================================


||--------------------|--------------------|--------------------|
||--------------------|--------------------|--------------------|
||--2------------2----|--------------------|--1------------1----|
||--------------------|--3------------3----|--------------------|


|--------------------| |
|--------------------|*|
|--------------------|*|
|--3------------3----| |



================================================================================
Rest for 6 bars
================================================================================

================================================================================
Riff 4: (Play 2 times)
================================================================================


||--------------------|---------------------|---------------------|
||--------------------|---------------------|---------------------|
||--------------------|---------------------|---------------------|
||--2------------2----|--2--------0----2----|--2------------(2/  -|


|-----------------------|---------------------|---------------------| |
|-----------------------|---------------------|---------------------|*|
|-----------------------|---------------------|---------------------|*|
| 7)----10----9----9----|--3------------(3/  -| 5)--------5----3----| |



End the riff on the following:

|-----------|-----------||
|-----------|-----------||
|-----------|-----------||
|--2--------|--(2)------||



================================================================================
Rest for 12 bars
================================================================================

================================================================================
Riff 5: (Play 2 times)
================================================================================


||------------------------|----------------------------|
||------------------------|----------------------------|
||--5----5--8--7----7--8--|--8----8--10--10----10--12--|
||------------------------|----------------------------|


|---------------------------| |
|---------------------------|*| X 2
|--13----13--10--10----8\---|*|
|---------------------------| |


|------------------------|---------------------------|
|------------------------|---------------------------|
|------------------------|---------------------------|
|--5----5--8--7----7--8--|--8----8--10--10----10--8--|


|------------------------| |
|------------------------|*| X 2
|------------------------|*|
|--8----8--7--7----5--3--| |



================================================================================
Riff 6: (Play 12 times)
================================================================================


||------------------------|------------------------|
||------------------------|------------------------|
||--5----5--7--8--5--5----|------------------------|
||------------------------|--5----5--7--8--5--5----|


|-------------------------|--------------------| |
|-------------------------|--------------------|*|
|-------------------------|--------------------|*|
|--6----6--8--8--6--(6\  -| 1)--------0--------| |



* Gradually fade out during the last 13 bars of the song *



================================================================================
End
================================================================================


Tab summary:        Riff 1 x 7
                    Riff 1 x 4
                    Riff 2 x 2
                    Riff 3 x 3
                    Riff 4 x 2
                    Riff 5 x 2
                    Riff 6 x 12

                    END

  Visit MetalTabs.com for more metal tablature

bottom separator

Contact Us | Privacy Policy | Disclaimer | Legal Notice
Copyright © 2001-2014 MetalTabs.com. All Rights Reserved.