top separator

Home

Forum

What's New

Submit a Tab

FAQ

Links

Contact Us

Link to Us

MetalTabs.com logo

Bands

0-9

A

B

C

D

E

F

G

H

I

J

K

L

M

N

O

P

Q

R

S

T

U

V

W

X

Y

Z

Search

What

Where
 

Kyuss - "Hurricane" Guitar Tab

Plain Text Version
More Kyuss Tabs

Hits: 5917
Rated: 4.00 out of 5 (4 votes)
Updated: 2005-07-26 06:06:45

 

By:

longinvs

sendpm.gif

email.gif

Important note
We did our best to reach Kyuss and ask for their permission to publish this tab. Unfortunately they did not respond to our requests or we could not find a way to contact them. This tab is available online until Kyuss tells us to take it down.


#----------------------------------PLEASE NOTE---------------------------------#
#This file is the author's own work and represents their interpretation of the #
#song. You may only use this file for private study, scholarship, or research. #
#Unless specified otherwise, this is NOT an official tab from the band members.#
#------------------------------------------------------------------------------#

  Visit MetalTabs.com for more metal tablature
  
Band:  Kyuss
Album: ...And the Circus Leaves Town
Song:  Hurricane

Copyright (c)  (Elektra Entertainment) (1995)
Version 1.0 - (07/07/05)

Transcribed By: Cody Tibbs
Email:          longinvs@gmail.com


.  - palm mute           /  - slide up to
\  - slide down to       ~  - vibrato
h  - hammer on           b  - Bend
p  - pull off            Suffixes for bend
t  - tap                 f  - full bend    h - half bend
ph - pinched harmonic    q  - quarter bend t - tap bend
*  - see comment         ^  - Hold bend    r release bend
x  - Stuccatto           ~  - vibrato bend
,  - slight palm mute    () - ghost note, sustained note
"  - tremolo note        <> - Trill

Tunning C F Bb Eb G C

Super simple song for you Kyuss fans

Verse A
|-------------------------------------------------|
|-------------------------------------------------|
|-------------------------------------------------|
|-11-11-11/13-11-11-11/13-11-11-11/13-13-13-13-14-|
|-11-11-11/13-11-11-11/13-11-11-11/13-------------|
|--9--9--9/11--9--9--9/11--9--9--9/11-------------|

Verse B
|-------------------------------------------------|
|-------------------------------------------------|
|-------------------------------------------------|
|-11-11-11/13-11-11-11/13-11-11-11/13-14-14-14-13-|
|-11-11-11/13-11-11-11/13-11-11-11/13-------------|
|--9--9--9/11--9--9--9/11--9--9--9/11-------------|

Chorus
|----------------------------------------|
|----------------------------------------|
|----------------------------------------|
|-11----14----13-13-13-------------------|
|-11-x3-14-x3-13-13-13-x18---------------|
|-9-----12----11-11-11-------------------|

Structure is easy enough to figure out since its only three different variations

NOTE: At the end of the song when you're playing the verse, play each chord
going down the neck and once you hit low C start downtuning your guitar to
get a similar sound to that of the song.

  Visit MetalTabs.com for more metal tablature

bottom separator

Contact Us | Privacy Policy | Disclaimer | Legal Notice
Copyright © 2001-2014 MetalTabs.com. All Rights Reserved.