top separator

Home

Forum

What's New

Submit a Tab

FAQ

Links

Contact Us

Link to Us

MuSpy.com

MetalTabs.com logo

Bands

0-9

A

B

C

D

E

F

G

H

I

J

K

L

M

N

O

P

Q

R

S

T

U

V

W

X

Y

Z

Search

What

Where
 

Lord Gore - "Rape Camp" Guitar Tab

Plain Text Version
More Lord Gore Tabs

Hits: 3038
Rated: 5.00 out of 5 (2 votes)
Updated: 2005-10-04 21:42:52

 

By:

sendpm.gif

email.gif

Important note
This tab is available online because we obtained explicit permission from Lord Gore or their label.


#----------------------------------PLEASE NOTE---------------------------------#
#This file is the author's own work and represents their interpretation of the #
#song. You may only use this file for private study, scholarship, or research. #
#Unless specified otherwise, this is NOT an official tab from the band members.#
#------------------------------------------------------------------------------#

  Visit MetalTabs.com for more metal tablature
  
Band:  Lord Gore
Album: The Autophagous Orgy
Song:  Rape Camp

Copyright (c)  Razorback records 2002
Version 1.0 - 7/05/05

Transcribed By: Jorge (haemorrhage)
Email:          Fungus_infested_genitals@yahoo.com,xloscrudos4x@yahoo.com


.  - palm mute           /  - slide up to
  - slide down to       ~  - vibrato
h  - hammer on           b  - Bend
p  - pull off            Suffixes for bend
t  - tap                 f  - full bend    h - half bend
ph - pinched harmonic    q  - quarter bend t - tap bend
*  - see comment         ^  - Hold bend    r release bend
x  - Stuccatto           ~  - vibrato bend
,  - slight palm mute    () - ghost note, sustained note
"  - tremolo note        <> - Trill




Tuning B

riff 1
|------------------|
|------------------|
|------------------|
|-----4-------5----|
|-2-2-2-5-4-4-3-5--|
|-0-0---3-2-2---3--|
  . .


riff 2
|------------------------------|
|------------------------------|
|------------------------------|
|------------------------------|
|-2----5----4-----2----8----3--|
|-0----3----2-----0----6----1--|



riff 3
|-------------------------------------------------|
|-------------------------------------------------|
|-------------------------------------------------|Same riff behind solo only
|-------------------------------------------------|with pinch harmonics every
|-------------------------------------------------|now and then
|-0"-----3"---0"-----3"---0"-----3"---1"-----4"---|



riff 4
|--------------------------------------------------------|
|--------------------------------------------------------|
|--------------------------------------------------------|
|--------------------------------------------------------|
|-2-2--2-2-2-5--2-2--2-2-2-5--2-2--2-2-2-5--3-3--3-3-3-6-|
|-0-0--0-0-0-3--0-0--0-0-0-3--0-0--0-0-0-3--1-1--1-1-1-4-|
  .             .             .             .




 end with
|----------|
|----------|
|----------|
|----------|
|-6-6-6--2-|
|-4-4-4--0-|

  Visit MetalTabs.com for more metal tablature

bottom separator

Contact Us | Privacy Policy | Disclaimer | Legal Notice
Copyright © 2001-2014 MetalTabs.com. All Rights Reserved.