top separator

Home

Forum

What's New

Submit a Tab

FAQ

Links

Contact Us

Link to Us

MetalTabs.com logo

Bands

0-9

A

B

C

D

E

F

G

H

I

J

K

L

M

N

O

P

Q

R

S

T

U

V

W

X

Y

Z

Search

What

Where
 

As I Lay Dying - "Confined" Guitar Tab

Plain Text Version
More As I Lay Dying Tabs

Hits: 19953
Rated: 4.67 out of 5 (9 votes)
Updated: 2005-07-26 05:58:56

 

By:

sendpm.gif

email.gif

Important note
This tab is available online because we obtained explicit permission from As I Lay Dying or their label.


#----------------------------------PLEASE NOTE---------------------------------#
#This file is the author's own work and represents their interpretation of the #
#song. You may only use this file for private study, scholarship, or research. #
#Unless specified otherwise, this is NOT an official tab from the band members.#
#------------------------------------------------------------------------------#

  Visit MetalTabs.com for more metal tablature
  
CONFINED
                          As recorded by As I Lay Dying
                   (From the 2005 Album SHADOWS ARE SECURITY)
                     Copyright (c) Metal Blade Records 2005

Transcribed by Daniel de la Rosa (MeloDeath) the_jesters_dance@yahoo.com

Version 1.1 Julio 2005

Tablature Legend

W - whole;    E - 8th;
H - half;     S - 16th;
Q - quarter;  T - 32nd;
+ - note tied to previous

 h   - hammer-on
 p   - pull-off
/ \  - slide
[n]  - artificial harmonic
 ~   - vibrato
 PM  - palm muting

 Dropped C Tunning (C G C F A D)

 Intro
 Q=180
  N.C.
  4/4
  Gtr I
  PM---------------------------------------
  S S E E E E E S S E   E E E E S S E E E
|---------------------|-------------------|
|---------------------|-------------------|
|---------------------|-------------------|
|---------------------|-------------------|
|-0-0-0-0-0-0-0-0-0-0-|-0-0-0-0-0-0-0-0-0-|
|-0-0-0-0-0-0-0-0-0-0-|-0-0-0-0-0-0-0-0-0-|
|
| Gtr II
| W                     W
|---------------------|-------------------|
|---------------------|-------------------|
|---------------------|-------------------|
|---------------------|-------------------|
|---------------------|-------------------|
|---------------------|-------------------|


 ---------------------------------------|
  S S E E E E E S S E   E E E E S S E E E
|---------------------|--------------------|
|---------------------|--------------------|
|---------------------|--------------------|
|---------------------|--------------------|
|-0-0-0-0-0-0-0-0-0-0-|-0-0-0-0-0-0-0-0-0--|
|-0-0-0-0-0-0-0-0-0-0-|-0-0-0-0-0-0-0-0-0--|
|
| PM------------------------------------|
| S S E E E E E S S E   E E E E S S E E E
|---------------------|--------------------|
|---------------------|--------------------|
|---------------------|--------------------|
|---------------------|--------------------|
|-0-0-0-0-0-0-0-0-0-0-|-0-0-0-0-0-0-0-0-0--|
|-0-0-0-0-0-0-0-0-0-0-|-0-0-0-0-0-0-0-0-0--|


 Pre-Verse
  D5                                      D5
  Gtr I
  E E E E E E E E    E  E  E E E E  E E   E E E E E E E E    E  E E E E E  E E
|-----------------|---------------------|-----------------|--------------------|
|-----------------|---------------------|-----------------|--------------------|
|-----------------|---------------------|-----------------|--------------------|
|-----------------|---------------------|-----------------|--------------------|
|-----5---7-------|--8----10---8-7----5-|-----5---7-------|--8----7---8-7----5-|
|-0-0---0---0-0-0-|-----0----0-----10---|-0-0---0---0-0-0-|-----0---0-----10---|
|
| Gtr II
| W                 +W                    W                 +W
|-----------------|---------------------|-----------------|--------------------|
|-----------------|---------------------|-----------------|--------------------|
|-----------------|---------------------|-----------------|--------------------|
|-0---------------|-(0)-----------------|-0---------------|-(0)----------------|
|-0---------------|-(0)-----------------|-0---------------|-(0)----------------|
|-0---------------|-(0)-----------------|-0---------------|-(0)----------------|


  D5
  Gtr I
  E E E E E E E E    E  E  E E E E  E E
|-----------------|---------------------|
|-----------------|---------------------|
|-----------------|---------------------|
|-----------------|---------------------|
|-----5---7-------|--8----10---8-7----5-|
|-0-0---0---0-0-0-|-----0----0-----10---|
|
| Gtr II
| W                 +W
|-----------------|---------------------|
|-----------------|---------------------|
|-----------------|---------------------|
|-0---------------|-(0)-----------------|
|-0---------------|-(0)-----------------|
|-0---------------|-(0)-----------------|


                      Q=185
   E  E E E E E E E   E  E E E E E  E E
|-------------------|-------------------|
|-------------------|-------------------|
|-------------------|-------------------|
|-------------------|-------------------|
|-------5---7-------|-8----7---8-7----5-|
|--0--0---0---0-0-0-|----0---0-----10---|
|
|                     Gtr III
|                     TP
| +W                  W
|-------------------|-------------------|
|-------------------|-------------------|
|-------------------|-------------------|
|-(0)---------------|-x\----------------|
|-(0)---------------|-x\----------------|
|-(0)---------------|-x\----------------|


   Verse
    Q=180
    N.C.
    Gtrs I, II
    PM|   PM  PM--|     PM   PM
    E E E E E E E E   E E  E E E E  E E
||------------------|-------------------|
||o-----------------|-------------------|
||------------------|-------------------|
||------------------|-------------------|
||o-----5---7-------|-8---10---8-7----5-|
||--0-0---0---0-0-0-|---0----0-----10---|


  PM|   PM  PM--|     PM  PM
  E E E E E E E E   E E E E E E  E E
|-----------------|--------------------||
|-----------------|-------------------o||
|-----------------|--------------------||
|-----------------|--------------------||
|-----5---7-------|-8---7---8-7----5--o||
|-0-0---0---0-0-0-|---0---0-----10-----||


 Verse
  Q=172
  D5
  Gtr I
  PM|    PM  PM--|     PM   PM
  E E E  E E E E E   E E  E E E   E    E   E
|------------------|---------------------------|
|------------------|---------------------------|
|------------------|---------------------------|
|------------------|---------------------------|
|-----5----7-------|-8---10---8---7--------5---|
|-0-0----0---0-0-0-|---0----0---------10-------|
|
| Gtr II
| PM|        PM--|            PM----------------
| E E Q.     E E E   H        S S S S  S S S S
|------------------|---------------------------|
|------------------|---------------------------|
|------------------|---------------------------|
|------------------|---------------------------|
|-0-0--------0-0-0-|----------0-0-0-0--0-0-0-0-|
|-0-0--------0-0-0-|----------0-0-0-0--0-0-0-0-|


  PM|    PM  PM--|     PM  PM
  E E E  E E E E E   E E E E E   E    E   E
|------------------|---------------------------|
|------------------|---------------------------|
|------------------|---------------------------|
|------------------|---------------------------|
|-----5----7-------|-8---7---8---7--------5----|
|-0-0----0---0-0-0-|---0---0---------10--------|
|
|---|        PM--|           PM-------------|
| E E Q.     E E E   H       S S S S  S S S S
|------------------|---------------------------|
|------------------|---------------------------|
|------------------|---------------------------|
|------------------|---------------------------|
|-0-0--------0-0-0-|---------0-0-0-0--0-0-0-0--|
|-0-0--------0-0-0-|---------0-0-0-0--0-0-0-0--|


  D5
  Gtr I
  PM|    PM  PM--|     PM   PM
  E E E  E E E E E   E E  E E E   E    E   E
|------------------|---------------------------|
|------------------|---------------------------|
|------------------|---------------------------|
|------------------|---------------------------|
|-----5----7-------|-8---10---8---7--------5---|
|-0-0----0---0-0-0-|---0----0---------10-------|
|
| Gtr II
| PM--------------------------------------------
| E E Q.     E E E   H        S S S S  S S S S
|------------------|---------------------------|
|------------------|---------------------------|
|------------------|---------------------------|
|------------------|---------------------------|
|-0-0--------0-0-0-|----------0-0-0-0--0-0-0-0-|
|-0-0--------0-0-0-|----------0-0-0-0--0-0-0-0-|


  PM|    PM  PM--|       PM    PM ~~~
  E E E  E E E E E   E   E E   E  H
|------------------|--------------------|
|------------------|--------------------|
|------------------|--------------------|
|------------------|-------------[7]----|
|-----5----7-------|-8-----7------------|
|-0-0----0---0-0-0-|-----0-----0--------|
|
|------------------------------|  ~~~
| E E Q.     E E E   S S E S S E  H
|------------------|--------------------|
|------------------|--------------------|
|------------------|--------------------|
|------------------|--------------------|
|-0-0--------0-0-0-|-0-0-0-0-0-0-[3]----|
|-0-0--------0-0-0-|-0-0-0-0-0-0--------|


  D5
  Gtr I
  PM--|    PM  PM----|     PM   PM
  E   E E  E E E E   E   E E  E E E   E    E   E
|----------------------|---------------------------|
|----------------------|---------------------------|
|----------------------|---------------------------|
|----------------------|---------------------------|
|-------5----7---------|-8---10---8---7--------5---|
|-0---0----0---0-0---0-|---0----0---------10-------|
|
| Gtr II
| PM--|        PM----|            PM----------------
| S S E Q.     E S S E   H        S S S S  S S S S
|----------------------|---------------------------|
|----------------------|---------------------------|
|----------------------|---------------------------|
|----------------------|---------------------------|
|-0-0-0--------0-0-0-0-|----------0-0-0-0--0-0-0-0-|
|-0-0-0--------0-0-0-0-|----------0-0-0-0--0-0-0-0-|


  PM--|    PM  PM----|     PM  PM
  E   E E  E E E E   E   E E E E E   E    E   E
|----------------------|--------------------------|
|----------------------|--------------------------|
|----------------------|--------------------------|
|----------------------|--------------------------|
|-------5----7---------|-8---7---8---7--------5---|
|-0---0----0---0-0---0-|---0---0---------10-------|
|
|-----------------------------------------------|
| S S E Q.     E S S E   H       S S S S  S S S S
|----------------------|--------------------------|
|----------------------|--------------------------|
|----------------------|--------------------------|
|----------------------|--------------------------|
|-0-0-0--------0-0-0-0-|---------0-0-0-0--0-0-0-0-|
|-0-0-0--------0-0-0-0-|---------0-0-0-0--0-0-0-0-|


  D5
  Gtr I
  PM|    PM  PM--|     PM   PM
  E E E  E E E E E   E E  E E E   E    E   E
|------------------|---------------------------|
|------------------|---------------------------|
|------------------|---------------------------|
|------------------|---------------------------|
|-----5----7-------|-8---10---8---7--------5---|
|-0-0----0---0-0-0-|---0----0---------10-------|
|
| Gtr II
| PM--------------------------------------------
| E E Q.     E E E   H        S S S S  S S S S
|------------------|---------------------------|
|------------------|---------------------------|
|------------------|---------------------------|
|------------------|---------------------------|
|-0-0--------0-0-0-|----------0-0-0-0--0-0-0-0-|
|-0-0--------0-0-0-|----------0-0-0-0--0-0-0-0-|


  PM|    PM  PM--|     PM  PM
  E E E  E E E E E   E E E E E   E    E   E
|------------------|---------------------------|
|------------------|---------------------------|
|------------------|---------------------------|
|------------------|----------------------0----|
|-----5----7-------|-8---7---8---7--------0----|
|-0-0----0---0-0-0-|---0---0---------10---0----|
|
|-----------------------------------------|
| E E Q.     E E E   H       S S S S  S S S S
|------------------|---------------------------|
|------------------|---------------------------|
|------------------|---------------------------|
|------------------|---------------------------|
|-0-0--------0-0-0-|---------0-0-0-0--0-0-0-0--|
|-0-0--------0-0-0-|---------0-0-0-0--0-0-0-0--|


 Verse
  D5
  Gtr I
      PM------------|     PM  PM--------|
  +E  E S S E S S E E E   E E E E S S E E  E
|-----------------------|--------------------|
|-----------------------|--------------------|
|-----------------------|--------------------|
|-(0)-------------------|--------------------|
|-(0)-0-0-0-0-0-0-0-0-8-|---7-0-0-0-0-0-0-10-|
|-(0)-0-0-0-0-0-0-0-0---|-0---0-0-0-0-0-0----|
|
| Gtr II
|     PM------------|     PM  PM--------|
| +E  E S S E S S E E E   E E E E S S E E  E
|-----------------------|--------------------|
|-----------------------|--------------------|
|-----------------------|--------------------|
|-----------------------|--------------------|
|-(0)-0-0-0-0-0-0-0-0-8-|---7-0-0-0-0-0-0-10-|
|-(0)-0-0-0-0-0-0-0-0---|-0---0-0-0-0-0-0----|


      PM--------|     PM  PM  PM
  E E E E S S E E E   E E E E E E E E
|-------------------|-----------------|
|-------------------|-----------------|
|-------------------|-----------------|
|-------------------|-----------------|
|---8-0-0-0-0-0-0-1-|---0-------0-----|
|-0---0-0-0-0-0-0---|-0---0-5-0---5-3-|
|
| PM  PM--------|     PM  PM  PM
| E E E E S S E E E   E E E E E E E E
|-------------------|-----------------|
|-------------------|-----------------|
|-------------------|-----------------|
|-------------------|-----------------|
|---8-0-0-0-0-0-0-1-|---0-------0-----|
|-0---0-0-0-0-0-0---|-0---0-5-0---5-3-|


  D5
  Gtr I
  PM--------------|     PM  PM------|
  E E S S E S S E E E   E E E E S S E E E
|---------------------|-------------------|
|---------------------|-------------------|
|---------------------|-------------------|
|---------------------|-------------------|
|-0-0-0-0-0-0-0-0-0-8-|---7-0-0-0-0-0-7-8-|
|-0-0-0-0-0-0-0-0-0---|-0---0-0-0-0-0-----|
|
| Gtr II
| PM--------------|     PM  PM------|
| E E S S E S S E E E   E E E E S S E E E
|---------------------|-------------------|
|---------------------|-------------------|
|---------------------|-------------------|
|---------------------|-------------------|
|-0-0-0-0-0-0-0-0-0-8-|---7-0-0-0-0-0-3-5-|
|-0-0-0-0-0-0-0-0-0---|-0---0-0-0-0-0-----|


      PM------|       PM  PM  PM
  E E E E S S E E E   E E E E E E E E
|-------------------|-----------------|
|-------------------|-----------------|
|-------------------|-----------------|
|---7---------------|-----------------|
|-5---0-0-0-0-0-0-1-|---0-------0-7-8-|
|-----0-0-0-0-0-0---|-0---0-5-0-------|
|
|     PM--------|     PM  PM  PM
| E E E E S S E E E   E E E E E E E E
|-------------------|-----------------|
|-------------------|-----------------|
|-------------------|-----------------|
|---3---------------|-----------------|
|-1---0-0-0-0-0-0-1-|---0-------0-7-8-|
|-----0-0-0-0-0-0---|-0---0-5-0-------|


  D5
  Gtrs I, II
  PM----------------|     PM  PM----------|
  E S S E S S E S S E E   E E E S S E S S E  E
|-----------------------|----------------------|
|-----------------------|----------------------|
|-----------------------|----------------------|
|-----------------------|----------------------|
|-0-0-0-0-0-0-0-0-0-0-8-|---7-0-0-0-0-0-0-0-10-|
|-0-0-0-0-0-0-0-0-0-0---|-0---0-0-0-0-0-0-0----|


  PM  PM----------|     PM  PM  PM
  E E E S S E S S E E   E E E E E E E E
|---------------------|-------------------|
|---------------------|-------------------|
|---------------------|-------------------|
|---------------------|-------------------|
|---8-0-0-0-0-0-0-0-1-|---0-------0-------|
|-0---0-0-0-0-0-0-0---|-0---0-5-0---5-3---|


  D5
  Gtr I
  PM----------------|         PM--------|
  E S S E S S E S S E E   E E E S S E S S E E
|-----------------------|---------------------|
|-----------------------|---------------------|
|-----------------------|---------------------|
|-----------------------|---------------------|
|-0-0-0-0-0-0-0-0-0-0-8-|---7-0-0-0-0-0-0-7-8-|
|-0-0-0-0-0-0-0-0-0-0---|-0---0-0-0-0-0-0-----|
|
| Gtr II
| PM----------------|     PM  PM--------|
| E S S E S S E S S E E   E E E S S E S S E E
|-----------------------|---------------------|
|-----------------------|---------------------|
|-----------------------|---------------------|
|-----------------------|---------------------|
|-0-0-0-0-0-0-0-0-0-0-8-|---7-0-0-0-0-0-0-3-5-|
|-0-0-0-0-0-0-0-0-0-0---|-0---0-0-0-0-0-0-----|


      PM----------|     PM  PM  PM
  E E E S S E S S E E   E E E E E E E E
|---------------------|-------------------|
|---------------------|-------------------|
|---------------------|-------------------|
|---7-----------------|-------------------|
|-5---0-0-0-0-0-0-0-1-|---0-------0-7-8---|
|-----0-0-0-0-0-0-0---|-0---0-5-0---------|
|
|     PM----------|     PM  PM  PM
| E E E S S E S S E E   E E E E E E E E
|---------------------|-------------------|
|---------------------|-------------------|
|---------------------|-------------------|
|---3-----------------|-------------------|
|-1---0-0-0-0-0-0-0-1-|---0-------0-7-8---|
|-----0-0-0-0-0-0-0---|-0---0-5-0---------|


 Pre-Chorus
  N.C.
  Gtrs I, II
  PM|   PM  PM  PM    PM    PM  PM    PM|   PM  PM  PM    PM    PM  PM
  E E E E E E E E   E E E E E E E E   E E E E E E E E   E E E E E E E E
|-----------------|-----------------|-----------------|-----------------|
|-----------------|-----------------|-----------------|-----------------|
|-----------------|-----------------|-----------------|-----------------|
|-------------7---|-5---------5---7-|-------------7---|-5---------5-----|
|-----5---8-------|-----5h8---------|-----5---8-------|-----5h8-------5-|
|-8-8---8---8---8-|---5-----5---5---|-0-0---0---0---0-|---0-----0---0---|


  Gtrs I, II
  PM|   PM  PM  PM    PM    PM  PM    PM|   PM  PM  PM     PM    PM  PM
  E E E E E E E E   E E E E E E E E   E E E E E E E E   E  E E E E E E E
|-----------------|-----------------|-----------------|------------------|
|-----------------|-----------------|-----------------|------------------|
|-----------------|-----------------|-----------------|------------------|
|---------3---7---|-5---------5---7-|-------------7---|-5----------5-----|
|-----5-----------|-----5h8---------|-----5---8-------|------5h8-------5-|
|-3-3---3---3---3-|---5-----5---5---|-0-0---0---0---0-|----0-----0---0---|
|
|                                                       Gtr III
|                                                       TP
| W                 W                 W                 W
|-----------------|-----------------|-----------------|------------------|
|-----------------|-----------------|-----------------|------------------|
|-----------------|-----------------|-----------------|------------------|
|-----------------|-----------------|-----------------|-x\---------------|
|-----------------|-----------------|-----------------|-x\---------------|
|-----------------|-----------------|-----------------|-x\---------------|


 Chorus
  Gtrs I, II
  PM|   PM  PM  PM    PM    PM  PM    PM|   PM  PM  PM    PM    PM  PM
  E E E E E E E E   E E E E E E E E   E E E E E E E E   E E E E E E E E
|-----------------|-----------------|-----------------|-----------------|
|-----------------|-----------------|-----------------|-----------------|
|-----------------|-----------------|-----------------|-----------------|
|-------------7---|-5---------5---7-|-------------7---|-5---------5-----|
|-----5---8-------|-----5h8---------|-----5---8-------|-----5h8-------5-|
|-8-8---8---8---8-|---5-----5---5---|-0-0---0---0---0-|---0-----0---0---|


  Gtrs I, II
  PM|   PM  PM  PM    PM    PM  PM    PM|   PM  PM  PM    PM    PM  PM
  E E E E E E E E   E E E E E E E E   E E E E E E E E   E E E E E E E E
|-----------------|-----------------|-----------------|-----------------|
|-----------------|-----------------|-----------------|-----------------|
|-----------------|-----------------|-----------------|-----------------|
|---------3---7---|-5---------5---7-|-------------7---|-5---------5-----|
|-----5-----------|-----5h8---------|-----5---8-------|-----5h8-------5-|
|-3-3---3---3---3-|---5-----5---5---|-0-0---0---0---0-|---0-----0---0---|


 Bridge
  Gtrs I, II
  PM|   PM  PM  PM    PM    PM  PM
  E E E E E E E E   E E E E E E E E
|-----------------|-----------------|
|-----------------|-----------------|
|-----------------|-----------------|
|-------------7---|-5---------5-----|
|-----5---8-------|-----5h8-------5-|
|-8-8---8---8---8-|---5-----5---5---|


   Verse
    N.C.
    Gtrs I, II
    PM|   PM  PM--|     PM   PM
    E E E E E E E E   E E  E E E E  E E
||------------------|-------------------|
||o-----------------|-------------------|
||------------------|-------------------|
||------------------|-------------------|
||o-----5---7-------|-8---10---8-7----5-|
||--0-0---0---0-0-0-|---0----0-----10---|


  PM|   PM  PM--|     PM  PM
  E E E E E E E E   E E E E E E  E E
|-----------------|--------------------||
|-----------------|-------------------o||
|-----------------|--------------------||
|-----------------|--------------------||
|-----5---7-------|-8---7---8-7----5--o||
|-0-0---0---0-0-0-|---0---0-----10-----||


    Gtr I
    PM--|   PM  PM----|     PM   PM
    S S E E E E E S S E   E E  E E E E  E E
||----------------------|-------------------|
||o---------------------|-------------------|
||----------------------|-------------------|
||----------------------|-------------------|
||o-------5---7---------|-8---10---8-7----5-|
||--0-0-0---0---0-0-0-0-|---0----0-----10---|
|
|   Gtr II
|   PM--|   PM  PM----|     PM   PM
|   S S E E E E E S S E   E E  E E E E  E E
||----------------------|-------------------|
||o---------------------|-------------------|
||----------------------|-------------------|
||----------------------|-------------------|
||o-------5---7---------|-8---10---8-7----5-|
||--0-0-0---0---0-0-0-0-|---0----0-----10---|


  PM--|   PM  PM----|     PM  PM
  S S E E E E E S S E   E E E E E E  E E
|---------------------|--------------------||
|---------------------|-------------------o||
|---------------------|--------------------||
|---------------------|--------------------||
|-------5---7---------|-8---7---8-7----5--o||
|-0-0-0---0---0-0-0-0-|---0---0-----10-----||
|
| PM--|   PM  PM----|     PM  PM
| S S E E E E E S S E   E E E E E E  E E
|---------------------|--------------------||
|---------------------|-------------------o||
|---------------------|--------------------||
|---------------------|-7---5---7-5--------||
|-------5---7---------|--------------7-8--o||
|-0-0-0---0---0-0-0-0-|---0---0------------||


 Pre-Chorus
  N.C.
  Gtrs I, II
  PM|   PM  PM  PM    PM    PM  PM    PM|   PM  PM  PM    PM    PM  PM
  E E E E E E E E   E E E E E E E E   E E E E E E E E   E E E E E E E E
|-----------------|-----------------|-----------------|-----------------|
|-----------------|-----------------|-----------------|-----------------|
|-----------------|-----------------|-----------------|-----------------|
|-------------7---|-5---------5---7-|-------------7---|-5---------5-----|
|-----5---8-------|-----5h8---------|-----5---8-------|-----5h8-------5-|
|-8-8---8---8---8-|---5-----5---5---|-0-0---0---0---0-|---0-----0---0---|


  Gtrs I, II
  PM|   PM  PM  PM    PM    PM  PM    PM|   PM  PM  PM     PM    PM  PM
  E E E E E E E E   E E E E E E E E   E E E E E E E E   E  E E E E E E E
|-----------------|-----------------|-----------------|------------------|
|-----------------|-----------------|-----------------|------------------|
|-----------------|-----------------|-----------------|------------------|
|---------3---7---|-5---------5---7-|-------------7---|-5----------5-----|
|-----5-----------|-----5h8---------|-----5---8-------|------5h8-------5-|
|-3-3---3---3---3-|---5-----5---5---|-0-0---0---0---0-|----0-----0---0---|
|
| Gtr III
|                                                       TP
| W                 W                 W                 W
|-----------------|-----------------|-----------------|------------------|
|-----------------|-----------------|-----------------|------------------|
|-----------------|-----------------|-----------------|------------------|
|-----------------|-----------------|-----------------|-x\---------------|
|-----------------|-----------------|-----------------|-x\---------------|
|-----------------|-----------------|-----------------|-x\---------------|


 Chorus
  N.C.
  Gtrs I, II
  PM|   PM  PM  PM    PM    PM  PM    PM|   PM  PM  PM    PM    PM  PM
  E E E E E E E E   E E E E E E E E   E E E E E E E E   E E E E E E E E
|-----------------|-----------------|-----------------|-----------------|
|-----------------|-----------------|-----------------|-----------------|
|-----------------|-----------------|-----------------|-----------------|
|-------------7---|-5---------5---7-|-------------7---|-5---------5-----|
|-----5---8-------|-----5h8---------|-----5---8-------|-----5h8-------5-|
|-8-8---8---8---8-|---5-----5---5---|-0-0---0---0---0-|---0-----0---0---|


  Gtrs I, II
  PM|   PM  PM  PM    PM    PM  PM    PM|   PM  PM  PM    PM    PM  PM
  E E E E E E E E   E E E E E E E E   E E E E E E E E   E E E E E E E E
|-----------------|-----------------|-----------------|-----------------|
|-----------------|-----------------|-----------------|-----------------|
|-----------------|-----------------|-----------------|-----------------|
|---------3---7---|-5---------5---7-|-------------7---|-5---------5-----|
|-----5-----------|-----5h8---------|-----5---8-------|-----5h8-------5-|
|-3-3---3---3---3-|---5-----5---5---|-0-0---0---0---0-|---0-----0---0---|


 Bridge
  Bb5               G5
  Gtrs I, II
  PM|   PM  PM  PM    PM    PM  PM
  E E E E E E E E   E E E E E E E E
|-----------------|-----------------|
|-----------------|-----------------|
|-----------------|-----------------|
|-------------7---|-5---------5-----|
|-----5---8-------|-----5h8-------5-|
|-8-8---8---8---8-|---5-----5---5---|
|
| Gtr IV
| W                 W
|-----------------|-----------------|
|-----------------|-----------------|
|-----------------|-----------------|
|-8---------------|-5---------------|
|-8---------------|-5---------------|
|-8---------------|-5---------------|


 Verse
  N.C.
  Gtrs I, II
  PM---------------------------------------
  E E S S E S S E E E   E E E E E E S S E
|---------------------|-------------------|
|---------------------|-------------------|
|---------------------|-------------------|
|---------------------|-------------------|
|---------------------|-------------------|
|-0-0-0-0-0-0-0-0-0-0-|-0-0-0-0-0-0-0-0-0-|


 -----------------|     PM  PM  PM
  E E S S E S S E E E   E E E E E E E E
|---------------------|------------------|
|---------------------|------------------|
|---------------------|------------------|
|---------------------|------------------|
|-------------------1-|---0-------0------|
|-0-0-0-0-0-0-0-0-0---|-0---0-5-0---5-3--|


  Gtrs I, II
  PM---------------------------------------
  E E S S E S S E E E   E E E E E E S S E
|---------------------|-------------------|
|---------------------|-------------------|
|---------------------|-------------------|
|---------------------|-------------------|
|---------------------|-------------------|
|-0-0-0-0-0-0-0-0-0-0-|-0-0-0-0-0-0-0-0-0-|


 -----------------|     PM  PM  PM
  E S S E E S S E E E   E E E E E E E E
|---------------------|------------------|
|---------------------|------------------|
|---------------------|------------------|
|---------------------|------------------|
|-------------------1-|---0-------0-7-8--|
|-0-0-0-0-0-0-0-0-0---|-0---0-5-0--------|


 Outro
  N.C.
  Gtrs I, II
  PM--------------|     PM  PM--------|
  E E S S E S S E E E   E E E E E E S S  E
|---------------------|--------------------|
|---------------------|--------------------|
|---------------------|--------------------|
|---------------------|--------------------|
|-------------------8-|---7-------------10-|
|-0-0-0-0-0-0-0-0-0---|-0---0-0-0-0-0-0----|


  PM  PM----------|     PM  PM  PM
  E E S S E S S E E E   E E E E E E E E
|---------------------|------------------|
|---------------------|------------------|
|---------------------|------------------|
|---------------------|------------------|
|---8---------------1-|---0-------0------|
|-0---0-0-0-0-0-0-0---|-0---0-5-0---5-3--|


  Gtr I
  PM--------------|     PM  PM----|
  E E S S E S S E E E   E E E E E E E E
|---------------------|-----------------|
|---------------------|-----------------|
|---------------------|-----------------|
|---------------------|-----------------|
|-------------------8-|---7---------3-5-|
|-0-0-0-0-0-0-0-0-0---|-0---0-0-0-0-----|
|
| Gtr II
| PM--------------|     PM  PM----|
| E E S S E S S E E E   E E E E E E E E
|---------------------|-----------------|
|---------------------|-----------------|
|---------------------|-----------------|
|---------------------|-----------------|
|-------------------8-|---7---------3-5-|
|-0-0-0-0-0-0-0-0-0---|-0---0-0-0-0-----|


      PM----------|     PM  PM  PM
  E E S S E S S E E E   E E E E E E E E
|---------------------|-----------------|
|---------------------|-----------------|
|---------------------|-----------------|
|---3-----------------|-----------------|
|-1-----------------1-|---0-------0---8-|
|-----0-0-0-0-0-0-0---|-0---0-5-0---5---|
|
|     PM----------|     PM  PM  PM
| E E S S E S S E E E   E E E E E E E E
|---------------------|-----------------|
|---------------------|-----------------|
|---------------------|-----------------|
|---3-----------------|-----------------|
|-1-----------------1-|---0-------0-----|
|-----0-0-0-0-0-0-0---|-0---0-5-0---5-3-|


  D5
  Gtrs I, II
  W          +W           +W           +W
|----------|------------|------------|--------*|
|----------|------------|------------|--------*|
|----------|------------|------------|--------*|
|-0--------|-(0)--------|-(0)--------|-(0)----*|
|-0--------|-(0)--------|-(0)--------|-(0)----*|
|-0--------|-(0)--------|-(0)--------|-(0)----*|

  Visit MetalTabs.com for more metal tablature

bottom separator

Contact Us | Privacy Policy | Disclaimer | Legal Notice
Copyright © 2001-2014 MetalTabs.com. All Rights Reserved.