top separator

Home

Forum

What's New

Submit a Tab

FAQ

Links

Contact Us

Link to Us

MetalTabs.com logo

Bands

0-9

A

B

C

D

E

F

G

H

I

J

K

L

M

N

O

P

Q

R

S

T

U

V

W

X

Y

Z

Search

What

Where
 

Ensiferum - "Frost" Guitar Tab

Plain Text Version
More Ensiferum Tabs

Hits: 6627
Rated: 5.00 out of 5 (4 votes)
Updated: 2005-07-26 05:50:15

 

By:

Theoldman

sendpm.gif

email.gif

Important note
This tab is available online because we obtained explicit permission from Ensiferum or their label.


#----------------------------------PLEASE NOTE---------------------------------#
#This file is the author's own work and represents their interpretation of the #
#song. You may only use this file for private study, scholarship, or research. #
#Unless specified otherwise, this is NOT an official tab from the band members.#
#------------------------------------------------------------------------------#

  Visit MetalTabs.com for more metal tablature
  
Band:  Ensiferum
Album: 1997-1999
Song:  Frost

Copyright (c)  Spinefarm 2005
Version 1.0 -  3.7.2005

Transcribed By: theoldman
Email:          swordbearing@hotmail.com
________________________________________

.  - palm mute           /  - slide up to
\  - slide down to       ~  - vibrato
h  - hammer on           b  - Bend
p  - pull off            Suffixes for bend
t  - tap                 f  - full bend    h - half bend
ph - pinched harmonic    q  - quarter bend t - tap bend
*  - see comment         ^  - Hold bend    r release bend
x  - Stuccatto           ~  - vibrato bend
,  - slight palm mute    () - ghost note, sustained note
"  - tremolo note        <> - Trill

Tuning E A D G B E

Riff 1 (0:00-0:14)
|----------------|
|----------------|
|----------------|
|----------------|
|7-------3---2---|
|5-------1---0---|



Riff 2 (0:15-0:41)
|------------------------------------------------|
|------------------------------------------------|
|------------------------------------------------|
|------------------------------------------------|
|0-0-0-7-5-7-0-0-0-7-5-7-0-0-0-8-5-8-0-0-0-8-5-8-|
|------------------------------------------------|
 . . .       . . .       . . .       . . .
|------------------------------------------------|
|------------------------------------------------|
|------------------------------------------------|
|------------------------------------------------|
|------3-2-3-------3-2-3-------2-0-2-------2-0-2-|
|1-1-1-------1-1-1-------0-0-0-------0-0-0-------|
 . . .       . . .       . . .       . . .



Riff 3 (0:42-0:54)
|------------------------------------------------|
|------------------------------------------------|
|------------------------------------------------|
|------------------------------------------------|
|0-0-0-8-5-8-0-0-0-8-5-8-0-0-0-7-5-7-0-0-0-7-5-7-|
|------------------------------------------------|
 . . .       . . .       . . .       . . .
|------------------------------------------------|
|------------------------------------------------|
|------------------------------------------------|
|------------------------------------3-----------|
|------3-2-3-------3-2-3-------2-0-2-------2-----|
|1-1-1-------1-1-1-------0-0-0-------------------|
 . . .       . . .       . . .



Riff 4 (0:55-1:08)
|---------------------|
|---------------------|
|---------------------|
|---------------------|
|3----2----7----7-----|
|1-1110-0005-5555-555-|
   ...  ...  ...  ...



Riff 5 (1:09-1:33)
|-----------------------------------------------------------|
|-----------------------------------------------------------|
|-----------------------------------------------------------|
|----------------------------5-------------4----------------|
|7-------------7-------------3-3333333333332-2222225--------|
|5-5555555555555-555555555555----------------------3-333333-|
   ............  ............  ............  ......  ......



Riff 6 (1:34-1:44)
|-----------------|
|-----------------|
|-----------------|
|--------9---10---|
|000000007---8----|
|-----------------|
 ........



Riff 7 (1:45-1:46)
|----------------|
|----------------|
|----------------|
|10---9---7------|
|----------------|
|----------------|



Riff 8 (1:47-1:59)
|-----------------------------------------|
|-----------------------------------------|
|-----------------------------------------|
|-----------------------------------------|
|3----5----7----7----3----5----7----7-----|
|1-1113-3335-5555-5551-1113-3335-5555-555-|
   ...  ...  ...  ...  ...  ...  ...  ...
|-----------------------------------------|
|-----------------------------------------|
|-----------------------------------------|
|--------------------5----4---------------|
|3----5----7----7----3-3332-2227----------|
|1-1113-3335-5555-555----------5----------|
   ...  ...  ...  ...  ...  ...



Riff 5 (2:00-2:24)

Riff 6 (2:25-2:34)

Riff 7 (2:35-2:36)

Riff 8 (2:37-2:49)



Riff 9 (acoustic) (2:50-3:30)
|--------------------------------|
|--------------------------------|
|----2-------2---------------0---|
|--2---2---2---2-----3-----------|
|0-------0---------0---0---2---2-|
|----------------1-------3-------|



Riff 10 (acoustic) under riff 9 (3:04-3:23)
|--------------------------------|
|--------------------------------|
|----5-4-----5-4---------4-------|
|7-------7-------7-----7-----5---|
|--------------------------------|
|--------------------------------|



Riff 11 (acoustic) under riff 9 (3:24-3:30)
|--------------------------------|
|--------------------------------|
|----5-4-----5-4---------7-5-4-5-|
|7-------7-------7-----7---------|
|--------------------------------|
|--------------------------------|



Solo 1 (distortion) (3:31-3:56)
|--------------------------------|
|----5-3-----5-3---------3-------|
|5-------5-------5-----5-----4---|
|--------------------------------|
|--------------------------------|
|--------------------------------|

|--------------------------------|
|----5-3-----5-3---------3-------|
|5-------5-------5-----5-----4---|
|--------------------------------|
|--------------------------------|
|--------------------------------|

|--------------------------------|
|----5-3-----5-3---------5-3---3-|
|5-------5-------5-----5-----4---|
|--------------------------------|
|--------------------------------|
|--------------------------------|

|------------------------7---4---|
|----5-3-----5-3-6---5-3---------|
|5-------5-----------------------|
|--------------------------------|
|--------------------------------|
|--------------------------------|



Riff 6 (3:57-4:07)

Riff 7 (4:08-4:09)

Riff 8 (4:10-4:23)



Riff 12 (4:24-4:40)
|-----------------------------------------------------------------|
|-----------------------------------------------------------------|
|-----------------------------------------------------------------|
|-----------------------------------------------------------------|
|7---7---7---7---7---7---7---7---3---3---3---3---2---2---2---2----|
|5-555-555-555-555-555-555-555-551-111-111-111-110-000-000-000-00-|



Riff 13 (4:41-5:02)
|---------------------------------|
|---------------------------------|
|---------------------------------|
|---------------------------------|
|3---3-3-2---2-2-7---7---7---7----|
|1-111-1-0-000-0-5-555-555-555-55-|
   ..      ..      ..  ..  ..  ..



Solo 2 under riff 13 (4:48-5:02)
|-------------------------------------------------------------------|
|-------------------------------------------------------------------|
|5-555-4-2--4-444-2-0--2-222-22-5-4-2-4-5-555-4-2-4-444-5-4-2-------|
|-------------------------------------------------------------------|
|-------------------------------------------------------------------|
|-------------------------------------------------------------------|



END

  Visit MetalTabs.com for more metal tablature

bottom separator

Contact Us | Privacy Policy | Disclaimer | Legal Notice
Copyright © 2001-2014 MetalTabs.com. All Rights Reserved.