top separator

Home

Forum

What's New

Submit a Tab

FAQ

Links

Contact Us

Link to Us

MuSpy.com

MetalTabs.com logo

Bands

0-9

A

B

C

D

E

F

G

H

I

J

K

L

M

N

O

P

Q

R

S

T

U

V

W

X

Y

Z

Search

What

Where
 

Gorguts - "Innoculated Life" Guitar Tab

Plain Text Version
More Gorguts Tabs

Hits: 4045
Updated: 2005-07-26 05:49:26

 

By:

Cloaca

sendpm.gif

email.gif

Important note
This tab is available online because we obtained explicit permission from Gorguts or their label.


#----------------------------------PLEASE NOTE---------------------------------#
#This file is the author's own work and represents their interpretation of the #
#song. You may only use this file for private study, scholarship, or research. #
#Unless specified otherwise, this is NOT an official tab from the band members.#
#------------------------------------------------------------------------------#

  Visit MetalTabs.com for more metal tablature
  
Gorguts - 'Innoculated Life'
Considered Dead (1991)
Roadrunner Records

Tabbed by Tim Snowsill (Tim_Snowsill@hotmail.com)
03/07/05

________________________________________________________________________________
Tab Rhythm is hardly perfect so listen to CD. Any comments or corrections can be
e-mailed to above address.

________________________________________________________________________________

Words by Luc Lemay
Music by Gorguts
Arranged by Gorguts


Gtr I (Db Gb B E Ab Db) - 'Luc Lemay'
Gtr II (Db Gb B E Ab Db) - 'Sylvain Marcoux'
Gtr III (Db Gb B E Ab Db) - 'James Murphy (Lead Guitar)'

   Riff 1 (0:00)
    Q=200
   4/4
    Gtr I
      PM----|   PM----|     PM----------------|
    E S S E E E S S E E   E S S S S S S E E E E
||----------------------|-----------------------|
||o---------------------|-----------------------|
||----------------------|-----------------------|
||--8-------------------|-----------------------|
||o-6---------3---------|-2-------------5-5-3-3-|
||----0-0-0-4---0-0-0-3-|---0-0-0-0-0-0---------|
|
|   Gtr II
|     PM----|   PM----|     PM----------------|
|   E S S E E E S S E E   E S S S S S S E E E E
||----------------------|-----------------------|
||o---------------------|-----------------------|
||----------------------|-----------------------|
||--8-------------------|-----------------------|
||o-6---------3---------|-2-------------5-5-3-3-|
||----0-0-0-0---0-0-0-3-|---0-0-0-0-0-0---------|


    PM----|   PM----|     PM----------|
  E S S E E E S S E E   E E E E E E E E
|---------------------|------------------||
|---------------------|-----------------o||
|---------------------|------------------||
|---------------------|------------------||
|-6---------3---------|-2-------5-5-3-3-o||
|---0-0-0-4---0-0-0-3-|---0-0-0----------||
|
|   PM----|   PM----|     PM----------|
| E S S E E E S S E E   E E E E E E E E
|---------------------|------------------||
|---------------------|-----------------o||
|---------------------|------------------||
|---------------------|------------------||
|-6---------3---------|-2---------------o||
|---0-0-0-0---0-0-0-3-|---0-0-0-3-3-1-1--||


  Gtr I
    PM----|   PM----|     PM----------------|
  E S S E E E S S E E   E S S S S S S E E E E
|---------------------|-----------------------|
|---------------------|-----------------------|
|---------------------|-----------------------|
|-5---------2---------|-1-------------4-4-2-2-|
|---------3---------2-|-----------------------|
|---0-0-0-----0-0-0---|---0-0-0-0-0-0---------|
|
| Gtr II
|   PM----|   PM----|     PM----------------|
| E S S E E E S S E E   E S S S S S S E E E E
|---------------------|-----------------------|
|---------------------|-----------------------|
|---------------------|-----------------------|
|-5---------2---------|-1-------------4-4-2-2-|
|-------------------2-|-----------------------|
|---0-0-0-0---0-0-0---|---0-0-0-0-0-0---------|


    PM----|   PM----|     PM----------|
  E S S E E E S S E E   E E E E E E E E
|---------------------|-------------------|
|---------------------|-------------------|
|---------------------|-------------------|
|-5---------2---------|-1-------4-4-2-2---|
|---------3---------2-|-------------------|
|---0-0-0-----0-0-0---|---0-0-0-----------|
|
|   PM----|   PM----|     PM----------|
| E S S E E E S S E E   E E E E E E E E
|---------------------|-------------------|
|---------------------|-------------------|
|---------------------|-------------------|
|-5---------2---------|-1-----------------|
|-------------------2-|---------2-2-0-0---|
|---0-0-0-0---0-0-0---|---0-0-0-----------|


  Gtr I
    PM----|   PM----|     PM----------------|
  E S S E E E S S E E   E S S S S S S E E E E
|---------------------|-----------------------|
|---------------------|-----------------------|
|---------------------|-----------------------|
|-5---------3---------|-1-------------4-4-2-2-|
|---------3---------2-|-----------------------|
|---0-0-0-----0-0-0---|---0-0-0-0-0-0---------|
|
| Gtr II
|   PM----|   PM----|     PM----------------|
| E S S E E E S S E E   E S S S S S S E E E E
|---------------------|-----------------------|
|---------------------|-----------------------|
|---------------------|-----------------------|
|-5---------2---------|-1-------------4-4-2-2-|
|-------------------2-|-----------------------|
|---0-0-0-0---0-0-0---|---0-0-0-0-0-0---------|


    PM----|   PM----|     PM----------|
  E S S E E E S S E E   E E E E E E E E
|---------------------|-------------------|
|---------------------|-------------------|
|---------------------|-------------------|
|-5---------3---------|-1-------4-4-2-2---|
|---------3---------2-|-------------------|
|---0-0-0-----0-0-0---|---0-0-0-----------|
|
|   PM----|   PM----|     PM----------|
| E S S E E E S S E E   E E E E E E E E
|---------------------|-------------------|
|---------------------|-------------------|
|---------------------|-------------------|
|-5---------2---------|-1-----------------|
|-------------------2-|---------2-2-0-0---|
|---0-0-0-0---0-0-0---|---0-0-0-----------|


   Riff 2 (0:19)
    Gtrs I, II
    PM--------------------------------------------------------------|
    S S S S S S S S S S S S S S S S   S S S S S S S S S S S S S S S S
||----------------------------------|----------------------------------|
||o---------------------------------|----------------------------------|
||----------------------------------|----------------------------------|
||--5-5-5-5-2-2-2-2-1-1-1-1---------|-1-1-1-1--------------------------|
||o-------------------------3-3-3-3-|---------2-2-2-2-1-1-1-1-1-1-1-1--|
||----------------------------------|----------------------------------|


  Gtr I
  PM--------------------------------------------------------------|
  S S S S S S S S S S S S S S S S   S S S S S S S S S S S S S S S S
|---------------------------------|----------------------------------||
|---------------------------------|---------------------------------o||
|---------------------------------|----------------------------------||
|-5-5-5-5-2-2-2-2-1-1-1-1---------|----------------------------------||
|-------------------------3-3-3-3-|-1-1-1-1---------5-5-5-5-5-5-5-5-o||
|---------------------------------|---------3-3-3-3------------------||
|
| Gtr II
| PM--------------------------------------------------------------|
| S S S S S S S S S S S S S S S S   S S S S S S S S S S S S S S S S
|---------------------------------|----------------------------------||
|---------------------------------|---------------------------------o||
|---------------------------------|----------------------------------||
|-5-5-5-5-2-2-2-2-1-1-1-1-4-4-4-4-|-3-3-3-3-0-0-0-0-7-7-7-7-6-6-6-6--||
|---------------------------------|---------------------------------o||
|---------------------------------|----------------------------------||


   Riff 3 (0:31)
    Q=160
    Gtrs I, II
    PM-----------------------------------------
    E E S S E E E E E   E E S S E E E S S E
||--------------------|----------------------||
||o-------------------|---------------------o||
||--------------------|----------------------||
||--------------------|----------------------||
||o-4-3-3-3-3-3-3-3-3-|-4-3-3-3-3-7-6-5-5-5-o||
||--2-1-1-1-1-1-1-1-1-|-2-1-1-1-1-5-4-3-3-3--||


 ---------------------------------------------|
  E E S S E E S S S S S S   E E S S E E E S S E
|-------------------------|-----------------------|
|-------------------------|-----------------------|
|-------------------------|-----------------------|
|-------------------------|-----------------------|
|-4-3-3-3-3-3-3-3-3-3-3-3-|-4-3-3-3-3-7-6-5-5-5---|
|-2-1-1-1-1-1-1-1-1-1-1-1-|-2-1-1-1-1-5-4-3-3-3---|


  PM--------------------------------------------------------------|
  E E S S E E E E E   E E S S E E E S S E   E E S S E E S S S S S S
|-------------------|---------------------|-------------------------|
|-------------------|---------------------|-------------------------|
|-------------------|---------------------|-------------------------|
|-------------------|---------------------|-------------------------|
|-4-3-3-3-3-3-3-3-3-|-4-3-3-3-3-7-6-5-5-5-|-4-3-3-3-3-3-3-3-3-3-3-3-|
|-2-1-1-1-1-1-1-1-1-|-2-1-1-1-1-5-4-3-3-3-|-2-1-1-1-1-1-1-1-1-1-1-1-|


 Riff 4 (0:45)
  Q=200
 5/4                   4/4
  Gtr I
  PM                    PM------------------------------------------------|
  E E W                 E E E E E E E E   E E E E E E E E   E E E E E E E E
|---------------------|-----------------|-----------------|-----------------|
|---------------------|-----------------|-----------------|-----------------|
|---------------------|-----------------|-----------------|-----------------|
|---------------------|-----5-5-----5-5-|-----6-6-----6-5-|-----5-5-----5-5-|
|-4-------------------|-4-4-3-3-4-4-3-3-|-4-4-4-4-7-7-4-3-|-3-3-3-3-3-3-3-3-|
|-2-------------------|-2-2-----2-2-----|-2-2-----5-5-----|-1-1-----1-1-----|
|
| Gtr II
| PM----------------------------------------------------------------------|
| E E E E E E E E E E   E E E E E E E E   E E E E E E E E   E E E E E E E E
|---------------------|-----------------|-----------------|-----------------|
|---------------------|-----------------|-----------------|-----------------|
|---------------------|-----------------|-----------------|-----------------|
|---------------------|-----------------|-----------------|-----------------|
|-----4-4-5-5-1-1-4-3-|-----3-3-----3-3-|-----4-4-----4-3-|-----3-3-----3-3-|
|-2-2-----------------|-2-2-----2-2-----|-2-2-----5-5-----|-1-1-----1-1-----|


   5/4                       4/4
    Gtr I
    PM-----------------------------------------
    E   E   E E E E E E E E   E E E E E E E E
||--------------------------|-----------------|
||o-------------------------|-----------------|
||--------------------------|-----------------|
||----------6-6-7-7-3-3-6-5-|-----5-5-----5-5-|
||o-4---4---4-4-5-5-1-1-4-3-|-4-4-3-3-4-4-3-3-|
||--2---2-------------------|-2-2-----2-2-----|
|
|   Gtr II
|   PM    PM-----------------------------------
|   S S S S E E E E E E E E   E E E E E E E E
||--------------------------|-----------------|
||o-------------------------|-----------------|
||--------------------------|-----------------|
||--------------------------|-----------------|
||o---------4-4-5-5-1-1-4-3-|-----3-3-----3-3-|
||--2-2-2-2-----------------|-2-2-----2-2-----|


 ---------------------------------|
  E E E E E E E E   E E E E E E E E    3x
|-----------------|--------------------||
|-----------------|-------------------o||
|-----------------|--------------------||
|-----6-6-----6-5-|-----5-5-----5-5----||
|-4-4-4-4-7-7-4-3-|-3-3-3-3-3-3-3-3---o||
|-2-2-----5-5-----|-1-1-----1-1--------||
|
|---------------------------------|
| E E E E E E E E   E E E E E E E E    3x
|-----------------|--------------------||
|-----------------|-------------------o||
|-----------------|--------------------||
|-----------------|--------------------||
|-----4-4-----4-3-|-----3-3-----3-3---o||
|-2-2-----5-5-----|-1-1-----1-1--------||


   4/4
    Gtr I
      PM----|   PM----|     PM----------------|
    E S S E E E S S E E   E S S S S S S E E E E
||----------------------|-----------------------|
||o---------------------|-----------------------|
||----------------------|-----------------------|
||--8-------------------|-----------------------|
||o-6---------3---------|-2-------------5-5-3-3-|
||----0-0-0-4---0-0-0-3-|---0-0-0-0-0-0---------|
|
|   Gtr II
|     PM----|   PM----|     PM----------------|
|   E S S E E E S S E E   E S S S S S S E E E E
||----------------------|-----------------------|
||o---------------------|-----------------------|
||----------------------|-----------------------|
||--8-------------------|-----------------------|
||o-6---------3---------|-2-------------5-5-3-3-|
||----0-0-0-0---0-0-0-3-|---0-0-0-0-0-0---------|


    PM----|   PM----|     PM----------|
  E S S E E E S S E E   E E E E E E E E
|---------------------|------------------||
|---------------------|-----------------o||
|---------------------|------------------||
|---------------------|------------------||
|-6---------3---------|-2-------5-5-3-3-o||
|---0-0-0-4---0-0-0-3-|---0-0-0----------||
|
|   PM----|   PM----|     PM----------|
| E S S E E E S S E E   E E E E E E E E
|---------------------|------------------||
|---------------------|-----------------o||
|---------------------|------------------||
|---------------------|------------------||
|-6---------3---------|-2---------------o||
|---0-0-0-0---0-0-0-3-|---0-0-0-3-3-1-1--||


    Gtr I
      PM----|   PM----|     PM----------------|
    E S S E E E S S E E   E S S S S S S E E E E
||----------------------|-----------------------|
||o---------------------|-----------------------|
||----------------------|-----------------------|
||--5---------2---------|-1-------------4-4-2-2-|
||o---------3---------2-|-----------------------|
||----0-0-0-----0-0-0---|---0-0-0-0-0-0---------|
|
|   Gtr II
|     PM----|   PM----|     PM----------------|
|   E S S E E E S S E E   E S S S S S S E E E E
||----------------------|-----------------------|
||o---------------------|-----------------------|
||----------------------|-----------------------|
||--5---------2---------|-1-------------4-4-2-2-|
||o-------------------2-|-----------------------|
||----0-0-0-0---0-0-0---|---0-0-0-0-0-0---------|


    PM----|   PM----|     PM----------|
  E S S E E E S S E E   E E E E E E E E
|---------------------|-------------------||
|---------------------|------------------o||
|---------------------|-------------------||
|-5---------2---------|-1-------4-4-2-2---||
|---------3---------2-|------------------o||
|---0-0-0-----0-0-0---|---0-0-0-----------||
|
|   PM----|   PM----|     PM----------|
| E S S E E E S S E E   E E E E E E E E
|---------------------|-------------------||
|---------------------|------------------o||
|---------------------|-------------------||
|-5---------2---------|-1-----------------||
|-------------------2-|---------2-2-0-0--o||
|---0-0-0-0---0-0-0---|---0-0-0-----------||


   Riff 5 (1:28)
   5/4
    Gtr I
       PM----------------------------------------|
    Q  E E E S S E E S S E   E E S S E E E E E E E  3x
||-------------------------|------------------------||
||o------------------------|-----------------------o||
||-------------------------|-------------------5-4--||
||-------------------------|---------------6-7------||
||o-4--4-4-4-3-3-3-3-3-3-3-|-3-3-3-3-3-3-3---------o||
||--2--2-2-2-1-1-1-1-1-1-1-|-1-1-1-1-1-1-1----------||
|
|   Gtr II
|      PM----------------------------------------|
|   Q  E E E S S E E S S E   E E S S E E E E E E E  3x
||-------------------------|------------------------||
||o------------------------|-----------------------o||
||-------------------------|------------------------||
||-------------------------|-------------------3-2--||
||o-4--4-4-4-3-3-3-3-3-3-3-|-3-3-3-3-3-3-3-4-5-----o||
||--2--2-2-2-1-1-1-1-1-1-1-|-1-1-1-1-1-1-1----------||


  Gtr I
     PM------------------------------------------------------------------|
  Q  E E S S S S S S S S S S S S   S S S S S S S S S S S S S S S S S S S S
|--------------------------------|-----------------------------------------|
|--------------------------------|-----------------------------------------|
|--------------------------------|-----------------------------------------|
|-6------6-6-6-6-----------------|-----------------------------------------|
|-4--4-4---------7-7-7-7-6-6-6-6-|-3-3-3-3-6-6-6-6-8-8-8-8-----------------|
|-2--2-2-------------------------|-------------------------6-6-6-6-6-6-6-6-|
|
| Gtr II
|    PM------------------------------------------------------------------|
| Q  E E S S S S S S S S S S S S   S S S S S S S S S S S S S S S S S S S S
|--------------------------------|-----------------------------------------|
|--------------------------------|-----------------------------------------|
|--------------------------------|-----------------------------------------|
|-4------6-6-6-6-----------------|-----------------------------------------|
|-2--4-4---------7-7-7-7-6-6-6-6-|-3-3-3-3-6-6-6-6-8-8-8-8-----------------|
|----2-2-------------------------|-------------------------6-6-6-6-6-6-6-6-|


   5/4
    Gtr I
       PM--------------------------------------|
    Q  E E E E E E S S E   E E S S E E E E E E E  4x
||-----------------------|------------------------||
||o----------------------|-----------------------o||
||-----------------------|-------------------5-4--||
||--6------6-5-----------|---------------6-7------||
||o-4--4-4-4-3-3-3-3-3-3-|-3-3-3-3-3-3-3---------o||
||--2--2-2-2-1-1-1-1-1-1-|-1-1-1-1-1-1-1----------||
|
|   Gtr II
|      PM--------------------------------------|
|   Q  E E E E E E S S E   E E S S E E E E E E E  4x
||-----------------------|------------------------||
||o----------------------|-----------------------o||
||-----------------------|------------------------||
||--6------6-5-----------|-------------------3-2--||
||o-4--4-4-4-3-3-3-3-3-3-|-3-3-3-3-3-3-3-4-5-----o||
||--2--2-2-2-1-1-1-1-1-1-|-1-1-1-1-1-1-1----------||


  Gtr I
     PM------------------------------------------------------------------|
  Q  E E S S S S S S S S S S S S   S S S S S S S S S S S S S S S S S S S S
|--------------------------------|-----------------------------------------|
|--------------------------------|-----------------------------------------|
|--------------------------------|-----------------------------------------|
|-6------------------------------|-----------------------------------------|
|-4--4-4-----------------6-6-6-6-|-3-3-3-3-1-1-1-1---------5-5-5-5-4-4-4-4-|
|-2--2-2-3-3-3-3-0-0-0-0---------|-----------------3-3-3-3-----------------|
|
| Gtr II
|    PM------------------------------------------------------------------|
| Q  E E S S S S S S S S S S S S   S S S S S S S S S S S S S S S S S S S S
|--------------------------------|-----------------------------------------|
|--------------------------------|-----------------------------------------|
|--------------------------------|-----------------------------------------|
|-6------6-6-6-6-----------------|---------3-3-3-3---------7-7-7-7-6-6-6-6-|
|-4--4-4---------7-7-7-7-6-6-6-6-|-3-3-3-3---------2-2-2-2-----------------|
|-2--2-2-------------------------|-----------------------------------------|


    Q=160
   4/4
    Gtrs I, II
    PM-----------------------------------------
    E E S S E E E E E   E E S S E E E S S E
||--------------------|----------------------||
||o-------------------|---------------------o||
||--------------------|----------------------||
||--------------------|----------------------||
||o-4-3-3-3-3-3-3-3-3-|-4-3-3-3-3-7-6-5-5-5-o||
||--2-1-1-1-1-1-1-1-1-|-2-1-1-1-1-5-4-3-3-3--||


 ---------------------------------------------|
  E E S S E E S S S S S S   E E S S E E E S S E
|-------------------------|----------------------|
|-------------------------|----------------------|
|-------------------------|----------------------|
|-------------------------|----------------------|
|-4-3-3-3-3-3-3-3-3-3-3-3-|-4-3-3-3-3-7-6-5-5-5--|
|-2-1-1-1-1-1-1-1-1-1-1-1-|-2-1-1-1-1-5-4-3-3-3--|


  PM--------------------------------------------------------------|
  E E S S E E E E E   E E S S E E E S S E   E E S S E E S S S S S S
|-------------------|---------------------|-------------------------|
|-------------------|---------------------|-------------------------|
|-------------------|---------------------|-------------------------|
|-------------------|---------------------|-------------------------|
|-4-3-3-3-3-3-3-3-3-|-4-3-3-3-3-7-6-5-5-5-|-4-3-3-3-3-3-3-3-3-3-3-3-|
|-2-1-1-1-1-1-1-1-1-|-2-1-1-1-1-5-4-3-3-3-|-2-1-1-1-1-1-1-1-1-1-1-1-|


   Riff 6 (2:16)
    Q=170
    Gtr I
    PM--------------------------------------------------------------|
    S S S S S S S S S S S S S S S S   S S S S S S S S S S S S S S S S
||----------------------------------|----------------------------------|
||o---------------------------------|----------------------------------|
||----------------------------------|----------------------------------|
||----------------------------------|----------------------------------|
||o---------------------------------|-4-4-4-4-4-4-4-4-4-4-4-4----------|
||--2-2-2-2-2-2-2-2-2-2-2-2-2-2-2-2-|-------------------------0-0-0-0--|
|
|   Gtr II
|   PM--------------------------------------------------------------|
|   S S S S S S S S S S S S S S S S   S S S S S S S S S S S S S S S S
||----------------------------------|----------------------------------|
||o---------------------------------|----------------------------------|
||----------------------------------|----------------------------------|
||----------------------------------|----------------------------------|
||o---------------------------------|----------------------------------|
||--2-2-2-2-2-2-2-2-2-2-2-2-2-2-2-2-|-2-2-2-2-2-2-2-2-2-2-2-2-0-0-0-0--|


  Gtr I
  PM-------------------------------
  S S S S S S S S S S S S S S S S
|---------------------------------|
|---------------------------------|
|---------------------------------|
|---------------------------------|
|---------5-5-5-5-5-5-5-5-5-5-5-5-|
|-3-3-3-3-------------------------|
|
| Gtr II
| PM-------------------------------
| S S S S S S S S S S S S S S S S
|---------------------------------|
|---------------------------------|
|---------------------------------|
|---------------------------------|
|---------------------------------|
|-3-3-3-3-3-3-3-3-3-3-3-3-3-3-3-3-|


 1.,2.,3.                            4.                       Q=155
 -----------------------------------------------------------|
  S S S S S S S S S S S S S S S S  4x S S S S S S S S S S S S Q
|----------------------------------||------------------------------|
|---------------------------------o||------------------------------|
|----------------------------------||------------------------------|
|----------------------------------||------------------------------|
|-5-5-5-5-5-5-5-5-5-5-5-5---------o||-5-5-5-5-5-5-5-5-5-5-5-5-2----|
|-------------------------0-0-0-0--||-------------------------0----|
|
|-----------------------------------------------------------|
| S S S S S S S S S S S S S S S S  4x S S S S S S S S S S S S Q
|----------------------------------||------------------------------|
|---------------------------------o||------------------------------|
|----------------------------------||------------------------------|
|----------------------------------||------------------------------|
|-5-5-5-5-5-5-5-5-5-5-5-5---------o||-5-5-5-5-5-5-5-5-5-5-5-5-2----|
|-------------------------0-0-0-0--||-------------------------0----|


 Solo - James Murphy (2:42)
  Gtrs I, II
   W
|--------------------------------------------------------------|
|--------------------------------------------------------------|
|--------------------------------------------------------------|
|--------------------------------------------------------------|
|--4-----------------------------------------------------------|
|--2-----------------------------------------------------------|
|
| Gtr III
|  |--3--|  |--3--|  |--3--|  |--3--|  |--3--|  |--3--|
|  S  S  S  S  S  S  S  S  S  S  S  S  S  S  S  S  S  S  Q
|-------------17h21p17----------17h21p17h21p17-----------------|
|----------19----------19----19----------------19--------------|
|-------18----------------18----------------------18-----------|
|----19----------------------------------------------19--------|
|-21----------------------------------------------------21b22r=|
|--------------------------------------------------------------|


    H.                             Q
|---------------------------------------------------|
|---------------------------------------------------|
|---------------------------------------------------|
|---------------------------------------------------|
|---4------------------------------2----------------|
|--(2)-----------------------------0----------------|
|
|                |--3--|  |--3--|  |--3--|  |--3--|
|  +Q     Q      S  S  S  S  S  S  S  S  S  S  S  S
|---------------------------------------------------|
|---------------------------------------------------|
|---------------------------------------------------|
|-------/16b17--16p14h16-17p16p14-16p14----14-------|
|-(21)----------------------------------17----17-16-|
|---------------------------------------------------|


  Gtrs I, II
   Q                 H.
|-----------------------------------------------------------------------|
|-----------------------------------------------------------------------|
|-----------------------------------------------------------------------|
|-----------------------------------------------------------------------|
|--5-----------------5--------------------------------------------------|
|--3----------------(3)-------------------------------------------------|
|
| Gtr III
|                                                                     ~~~
|  |--3--|  |--3--|  |--3---|  |--3--|  |--3--|  |--3--|  |--3--|  |3-|
|  S  S  S  S  S  S  S   S  S  S  S  S  S  S  S  S  S  S  S  S  S  S  E
|-----------------------------------------------------------------------|
|-----------------------------------------------------------------------|
|--------------------------------------------15----------------15-16-18-|
|----------14-----------------14-16-17-16-17----17-16-14-16-17----------|
|-14-16-17----17-16-14--16-17-------------------------------------------|
|-----------------------------------------------------------------------|


   +H.                 Q
|--------------------------|
|--------------------------|
|--------------------------|
|--------------------------|
|--(5)-----------------2---|
|--(3)-----------------0---|
|
|~~~~~~~~~~~~~~~~~~~
|  +Q    +Q    Q      +Q
|--------------------------|
|--------------------------|
|-(18)--(18)--18b19--(18)--|
|--------------------------|
|--------------------------|
|--------------------------|


 Gtrs I, II
   W                           H.                                 Q
|---------------------------|-------------------------------------------------|
|---------------------------|-------------------------------------------------|
|---------------------------|-------------------------------------------------|
|---------------------------|-------------------------------------------------|
|--4------------------------|--4----------------------------------2-----------|
|--2------------------------|-(2)---------------------------------0-----------|
|
| Gtr III
|  ~~~~~~~~~~~~~                     ~~~
|                                                        |--3--|  |--3--|
|  H       +Q     S   E  S     S  S  E.   S  S  S  S  S  S  S  S  S  S  S  E
|---------------------------|-21p17-----/17-19-21-19-17-----------------------|
|---------------------------|-------19------------------21-19-17-21-19-17-----|
|-18------(18)\--(7)S12S(7)-|---------------------------------------------19--|
|---------------------------|-------------------------------------------------|
|---------------------------|-------------------------------------------------|
|---------------------------|-------------------------------------------------|


  Gtrs I, II
   Q           H.
|--------------------------------------------------------|
|--------------------------------------------------------|
|--------------------------------------------------------|
|--------------------------------------------------------|
|--5-----------5-----------------------------------------|
|--3----------(3)----------------------------------------|
|
| Gtr III
|  PM------|
|              |--3---|  |--3--|  |--3--|
|  S  S  S  S  S   S  S  S  S  S  S  S  S  S  S  S  S  E
|--------------------------------------------------------|
|--------------------------------------------------------|
|-16----18----19--18-16-18-16----16----------------16-18-|
|----17----17-----------------19----19-18-16-18-19-------|
|--------------------------------------------------------|
|--------------------------------------------------------|


   PM---|               PM--|
   E      E   Q         E      E     Q
|-----------------------------------------------|
|-----------------------------------------------|
|-----------------------------------------------|
|-----------------------------------------------|
|--5------5---4---------5------5-----3----------|
|--3------3---2---------3------3-----1----------|
|
|                 ~~~~~~~~~~~~~~~~~  PM------|
|  E     +E   E   E    +E     +E     S  S  S  S
|-----------------------------------------------|
|-----------------------------------------------|
|-18b19r(18)-16-[18]-([18])-([18])--------------|
|-----------------------------------------------|
|--------------------------------------------14-|
|----------------------------------/14-16-17----|


  Gtrs I, II
   W
|----------------------------------------------------------|
|----------------------------------------------------------|
|----------------------------------------------------------|
|----------------------------------------------------------|
|--4-------------------------------------------------------|
|--2-------------------------------------------------------|
|
| Gtr III
|                    |--3--|  |--3--|  |--3--|
|  S  S  S  S  S  S  S  S  S  S  S  S  S  S  S  S  S  S  S
|----------------------------------------------------------|
|----------------------------------------------------------|
|----------------------------------------------------------|
|-------------------------------15----------------15h16h18-|
|-------------------16p14h16h17----17p16p14h16h17----------|
|-17-16-14-16-16S17----------------------------------------|


   H.                                         Q
|-----------------------------------------------------------|
|-----------------------------------------------------------|
|-----------------------------------------------------------|
|-----------------------------------------------------------|
|--4------------------------------------------2-------------|
|-(2)-----------------------------------------0-------------|
|
|        ~~
|           |--3---|   |--3--|                      |--3--|
|  S  S  E  S.    +S.  S  S  S  S   S   S  S  S  S  S  S  S
|-----------------------------------------------------------|
|-----------------------------------------------------------|
|-----------------------------------------------18----16-18-|
|-18p16h18-19b20r(19)-18h19p18p16p[15]-16h18h19----19-------|
|-----------------------------------------------------------|
|-----------------------------------------------------------|


  Gtrs I, II
   Q                 H.
|--------------------------------------------------------------|
|--------------------------------------------------------------|
|--------------------------------------------------------------|
|--------------------------------------------------------------|
|--5-----------------5-----------------------------------------|
|--3----------------(3)----------------------------------------|
|
| Gtr III
|  |--3--|  |--3--|  |--3---|  |--3--|
|  S  S  S  S  S  S  S   S  S  S  S  S  S  S  S  S  S  S  S  S
|--------------------------------------------------------17----|
|----------18----18-19--18----18----18-19-18-19-21-19-21----21-|
|-16-18-19----19-----------19----19----------------------------|
|--------------------------------------------------------------|
|--------------------------------------------------------------|
|--------------------------------------------------------------|


  +H.                                        Q
|-------------------------------------------------------|
|-------------------------------------------------------|
|-------------------------------------------------------|
|-------------------------------------------------------|
|-(5)----------------------------------------2----------|
|-(3)----------------------------------------0----------|
|
|  |--3---|              |--3--|
|  S   S  S  S  S  S  S  S  S  S  S  S  S S  S  S  S  S
|-17--19-17----17---------------------------17-19-17----|
|-----------21----21-19-21-19-18----18-19------------21-|
|--------------------------------19---------------------|
|-------------------------------------------------------|
|-------------------------------------------------------|
|-------------------------------------------------------|


  Gtrs I, II
   W
|-------------------------------------------------------|
|-------------------------------------------------------|
|-------------------------------------------------------|
|-------------------------------------------------------|
|--4----------------------------------------------------|
|--2----------------------------------------------------|
|
| Gtr III
|           ~~
|              |--3--|  |--3--|  |--3--|
|  S  S  S  E  S  S  S  S  S  S  S  S  S  S  S  S  S  S
|-------------------------------------------------------|
|-21-19-18----------------------18-19-18----------------|
|----------19-18-16----16-18-19----------19-18-16-------|
|-------------------19----------------------------19-18-|
|-------------------------------------------------------|
|-------------------------------------------------------|


   H.                                   Q
|--------------------------------------------------------|
|--------------------------------------------------------|
|--------------------------------------------------------|
|--------------------------------------------------------|
|--4------------------------------------2----------------|
|-(2)-----------------------------------0----------------|
|
|                                       |--3--|  |--3--|
|  S   S  S  S  S  S  S  S  S  S  S  S  S  S  S  S  S  S
|--------------------------------------------------------|
|--------------------------------------------------------|
|-----------16-18-19-18-16-------------------------------|
|-15--16-18----------------18-15-18-16-18-16-15-16-15----|
|-----------------------------------------------------17-|
|--------------------------------------------------------|


  Gtrs I, II
                                       PM-|                PM------|
   Q           H.                      E  E   Q            E        E  Q
|----------------------------------|--------------------------------------|
|----------------------------------|--------------------------------------|
|----------------------------------|--------------------------------------|
|----------------------------------|--------------------------------------|
|--5-----------5-------------------|---5--5---4------------5--------5--3--|
|--3----------(3)------------------|---3--3---2------------3--------3--1--|
|
| Gtr III
|                        ~~~~~~~~~~~~~~~~~~~~~~~~
|              |--3---|                           |--3--|  |--3--|
|  S  S  S  S  S   S  S  H     +E     +Q     +E   S  S  S  S  S  S  E  Q
|----------------------------------|-------------------------17----17-22--|
|----------------------------------|----------------------19----19--------|
|----------------------------------|-------------------18-----------------|
|----------------------------------|----------------19--------------------|
|-17-16-14-16-17--16-14-16----(16)-|-(16)---(16)-21-----------------------|
|----------------------------------|--------------------------------------|


  Q=200
 5/4                         4/4
  Gtr I
   PM                         PM---------------
   E E   W                    E E E E E E E E
|---------------------------|-----------------|
|---------------------------|-----------------|
|---------------------------|-----------------|
|---------------------------|-----5-5-----5-5-|
|--4------------------------|-4-4-3-3-4-4-3-3-|
|--2------------------------|-2-2-----2-2-----|
|
| Gtr II
|  PM------------------------------------------
|  E E   E   E E  E E E E E   E E E E E E E E
|---------------------------|-----------------|
|---------------------------|-----------------|
|---------------------------|-----------------|
|---------------------------|-----------------|
|--------4---4-5--5-1-1-4-3-|-----3-3-----3-3-|
|--2-2----------------------|-2-2-----2-2-----|
|
| Gtr III
|  ~~~~~~~~~~
|  Q    +Q     H.             W
|-21---(21)\----------------|-----------------|
|---------------------------|-----------------|
|---------------------------|-----------------|
|---------------------------|-----------------|
|---------------------------|-----------------|
|---------------------------|-----------------|


 ---------------------------------|
  E E E E E E E E   E E E E E E E E
|-----------------|-----------------|
|-----------------|-----------------|
|-----------------|-----------------|
|-----6-6-----6-5-|-----5-5-----5-5-|
|-4-4-4-4-7-7-4-3-|-3-3-3-3-3-3-3-3-|
|-2-2-----5-5-----|-1-1-----1-1-----|
|
|---------------------------------|
| E E E E E E E E   E E E E E E E E
|-----------------|-----------------|
|-----------------|-----------------|
|-----------------|-----------------|
|-----------------|-----------------|
|-----4-4-----4-3-|-----3-3-----3-3-|
|-2-2-----5-5-----|-1-1-----1-1-----|
|
| W                 W
|-----------------|-----------------|
|-----------------|-----------------|
|-----------------|-----------------|
|-----------------|-----------------|
|-----------------|-----------------|
|-----------------|-----------------|


   5/4                       4/4
    Gtr I
    PM-----------------------------------------
    E   E   E E E E E E E E   E E E E E E E E
||--------------------------|-----------------|
||o-------------------------|-----------------|
||--------------------------|-----------------|
||----------6-6-7-7-3-3-6-5-|-----5-5-----5-5-|
||o-4---4---4-4-5-5-1-1-4-3-|-4-4-3-3-4-4-3-3-|
||--2---2-------------------|-2-2-----2-2-----|
|
|   Gtr II
|   PM    PM-----------------------------------
|   S S S S E E E E E E E E   E E E E E E E E
||--------------------------|-----------------|
||o-------------------------|-----------------|
||--------------------------|-----------------|
||--------------------------|-----------------|
||o---------4-4-5-5-1-1-4-3-|-----3-3-----3-3-|
||--2-2-2-2-----------------|-2-2-----2-2-----|


 ---------------------------------|
  E E E E E E E E   E E E E E E E E    3x
|-----------------|--------------------||
|-----------------|-------------------o||
|-----------------|--------------------||
|-----6-6-----6-5-|-----5-5-----5-5----||
|-4-4-4-4-7-7-4-3-|-3-3-3-3-3-3-3-3---o||
|-2-2-----5-5-----|-1-1-----1-1--------||
|
|---------------------------------|
| E E E E E E E E   E E E E E E E E    3x
|-----------------|--------------------||
|-----------------|-------------------o||
|-----------------|--------------------||
|-----------------|--------------------||
|-----4-4-----4-3-|-----3-3-----3-3---o||
|-2-2-----5-5-----|-1-1-----1-1--------||


   Riff 1 (0:00)
    Q=200
   4/4
    Gtr I
      PM----|   PM----|     PM----------------|
    E S S E E E S S E E   E S S S S S S E E E E
||----------------------|-----------------------|
||o---------------------|-----------------------|
||----------------------|-----------------------|
||--8-------------------|-----------------------|
||o-6---------3---------|-2-------------5-5-3-3-|
||----0-0-0-4---0-0-0-3-|---0-0-0-0-0-0---------|
|
|   Gtr II
|     PM----|   PM----|     PM----------------|
|   E S S E E E S S E E   E S S S S S S E E E E
||----------------------|-----------------------|
||o---------------------|-----------------------|
||----------------------|-----------------------|
||--8-------------------|-----------------------|
||o-6---------3---------|-2-------------5-5-3-3-|
||----0-0-0-0---0-0-0-3-|---0-0-0-0-0-0---------|


    PM----|   PM----|     PM----------|
  E S S E E E S S E E   E E E E E E E E
|---------------------|------------------||
|---------------------|-----------------o||
|---------------------|------------------||
|---------------------|------------------||
|-6---------3---------|-2-------5-5-3-3-o||
|---0-0-0-4---0-0-0-3-|---0-0-0----------||
|
|   PM----|   PM----|     PM----------|
| E S S E E E S S E E   E E E E E E E E
|---------------------|------------------||
|---------------------|-----------------o||
|---------------------|------------------||
|---------------------|------------------||
|-6---------3---------|-2---------------o||
|---0-0-0-0---0-0-0-3-|---0-0-0-3-3-1-1--||


    Gtr I
      PM----|   PM----|     PM----------------|
    E S S E E E S S E E   E S S S S S S E E E E
||----------------------|-----------------------|
||o---------------------|-----------------------|
||----------------------|-----------------------|
||--5---------2---------|-1-------------4-4-2-2-|
||o---------3---------2-|-----------------------|
||----0-0-0-----0-0-0---|---0-0-0-0-0-0---------|
|
|   Gtr II
|     PM----|   PM----|     PM----------------|
|   E S S E E E S S E E   E S S S S S S E E E E
||----------------------|-----------------------|
||o---------------------|-----------------------|
||----------------------|-----------------------|
||--5---------2---------|-1-------------4-4-2-2-|
||o-------------------2-|-----------------------|
||----0-0-0-0---0-0-0---|---0-0-0-0-0-0---------|


    PM----|   PM----|     PM----------|
  E S S E E E S S E E   E E E E E E E E
|---------------------|-------------------||
|---------------------|------------------o||
|---------------------|-------------------||
|-5---------2---------|-1-------4-4-2-2---||
|---------3---------2-|------------------o||
|---0-0-0-----0-0-0---|---0-0-0-----------||
|
|   PM----|   PM----|     PM----------|
| E S S E E E S S E E   E E E E E E E E
|---------------------|-------------------||
|---------------------|------------------o||
|---------------------|-------------------||
|-5---------2---------|-1-----------------||
|-------------------2-|---------2-2-0-0--o||
|---0-0-0-0---0-0-0---|---0-0-0-----------||


End.

  Visit MetalTabs.com for more metal tablature

bottom separator

Contact Us | Privacy Policy | Disclaimer | Legal Notice
Copyright © 2001-2014 MetalTabs.com. All Rights Reserved.