top separator

Home

Forum

What's New

Submit a Tab

FAQ

Links

Contact Us

Link to Us

MetalTabs.com logo

Bands

0-9

A

B

C

D

E

F

G

H

I

J

K

L

M

N

O

P

Q

R

S

T

U

V

W

X

Y

Z

Search

What

Where
 

Entwined - "The Sound of Her Wings" Guitar Tab

Plain Text Version
More Entwined Tabs

Hits: 1808
Updated: 2005-07-26 05:48:14

 

By:

GWARslave

sendpm.gif

email.gif

Important note
We did our best to reach Entwined and ask for their permission to publish this tab. Unfortunately they did not respond to our requests or we could not find a way to contact them. This tab is available online until Entwined tells us to take it down.


#----------------------------------PLEASE NOTE---------------------------------#
#This file is the author's own work and represents their interpretation of the #
#song. You may only use this file for private study, scholarship, or research. #
#Unless specified otherwise, this is NOT an official tab from the band members.#
#------------------------------------------------------------------------------#

  Visit MetalTabs.com for more metal tablature
  
Artist: Entwined
Album: Dancing Under Glass
Track: The Sound of Her Wings
Tabbed by Phil Tuncap (the_iced_earth@hotmail.com)

6.25.05

D Tuning


d|-------|
A|-------|
F|-------|
C|-------|
G|-X//---|
D|-X//---|


Riff 1

Guitar 1                          x2
d|---------------------------------|
A|---------------------------------|
F|---------------------------------|
C|---------------------------------|
G|-5---------------5---------------|
D|---------6---------------8-------|

				  x2
d|---------------------------------|
A|---------------------------------|
F|-7---------------7---------------|
C|---------8---------------10------|
G|---------------------------------|
D|---------------------------------|


Guitar 2
d|---------------------------------|
A|---------------------------------|
F|---------------------------------|
C|---------------------------------|
G|-5---------------5---------------|
D|---------6---------------8-------|

d|---------------------------------|
A|---------------------------------|
F|---------------------------------|
C|---------------------------------|
G|-8-------5-------8-------7-------|
D|---------------------------------|

d|---------------------------------|
A|---------------------------------|
F|-7---------------7---------------|
C|---------8---------------10------|
G|---------------------------------|
D|---------------------------------|

d|---------------------------------|
A|---------------------------------|
F|-10------7-------10-----9h10p9---|
C|---------------------------------|
G|---------------------------------|
D|---------------------------------|


Both
d|------|
A|------|
F|------|
C|------|
G|-//---|
D|-//---|


Riff 2
				   x2
d|----------------------------------|
A|----------------------------------|
F|----------------------------------|
C|----------------------------------|
G|---------5555555533333333---------|
D|-55555555----------------33333333-|
   ********************************

Riff 1 x4
Riff 2 x2


Riff 3
d|-------------------------------------------------------------------|
A|-------------------------------------------------------------------|
F|-------------------------------------------------------------------|
C|-8-----------------------------------------------------------------|
G|-6---6-666-666-665----------------8---------------3----------------|
D|-----------------3--333-333-333-336-666-666-666-661-111-111-111-11-|
       * *** *** **   *** *** *** **  *** *** *** **  *** *** *** **

								    x3
d|-------------------------------------------------------------------|
A|-------------------------------------------------------------------|
F|-------------------------------------------------------------------|
C|-8-----------------------------------------------------------------|
G|-6-666-666-666-665----------------8---------------3----------------|
D|-----------------3--333-333-333-336-666-666-666-661-111-111-111-11-|
     *** *** *** **   *** *** *** **  *** *** *** **  *** *** *** **

Riff 1 x4
Riff 2 x2
Riff 3 x4

d|----...-------|
A|----...-------|
F|----...-------|
C|-7--...-------|
G|-5--...-----6-|
D|-5--...-----4-| <-- stop this slowly with your palm


<lead I don't know>


Riff 4
	 	   x4
d|------------------|
A|------------------|
F|------------------|
C|-7----------------|
G|-5-5-5-5-5-555555-|
D|------------------|
     * * * * ******

	 	   x4
d|------------------|
A|------------------|
F|------------------|
C|------------------|
G|-6----------------|
D|-4-4-4-4-4-444444-|
     * * * * ******

	 	   x4
d|------------------|
A|------------------|
F|------------------|
C|------------------|
G|-5----------------|
D|-3-3-3-3-3-333333-|
     * * * * ******

	 	   x4
d|------------------|
A|------------------|
F|------------------|
C|------------------|
G|-7----------------|
D|-5-5-5-5-5-555555-|
     * * * * ******

Riff 1 x6


Ending

d|---|
A|---|
F|---|
C|-7-|
G|-5-|
D|-5-|




d|-----------------------------------------------------------------|
A|-----------------------------------------------------------------|
F|-----------------------------------------------------------------|
C|-----------------------------------------------------------------|
G|-----------------------------------------------------------------|
D|-----------------------------------------------------------------|



notation:
^   =  bend [ ^ = half, ^^ = whole, etc. ]
^r  =  bend and release
x   =  mute with fret-hand
*   =  mute with palm-hand
X\\ =  pick slide
h   =  hammer-on
p   =  pull-off
~   =  vibrato
t   =  tap-on
/   =  slide up
\   =  slide down
h.  =  harmonics
ah  =  artificial harmonic
(9) =  ghost note
tm  =  trem picking
tr  =  trill

  Visit MetalTabs.com for more metal tablature

bottom separator

Contact Us | Privacy Policy | Disclaimer | Legal Notice
Copyright © 2001-2014 MetalTabs.com. All Rights Reserved.