top separator

Home

Forum

What's New

Submit a Tab

FAQ

Links

Contact Us

Link to Us

MetalTabs.com logo

Bands

0-9

A

B

C

D

E

F

G

H

I

J

K

L

M

N

O

P

Q

R

S

T

U

V

W

X

Y

Z

Search

What

Where
 

Darkthrone - "Majestic Desolate Eye" Guitar Tab

Plain Text Version
More Darkthrone Tabs

Hits: 3351
Updated: 2005-07-26 05:46:25

 

By:

Unadorned

sendpm.gif

email.gif

Important note
This tab is available online because we obtained explicit permission from Darkthrone or their label.


#----------------------------------PLEASE NOTE---------------------------------#
#This file is the author's own work and represents their interpretation of the #
#song. You may only use this file for private study, scholarship, or research. #
#Unless specified otherwise, this is NOT an official tab from the band members.#
#------------------------------------------------------------------------------#

  Visit MetalTabs.com for more metal tablature
  
Band:  Darkthrone
Album: Total Death
Song:  Majestic Desolate Eye

Copyright (c)  Moonfog, 1996
Version 1.0 - 7/2/05

Transcribed By: Mike M.
Email:          etiax@msn.com


.  - palm mute           /  - slide up to
\  - slide down to       ~  - vibrato
h  - hammer on           b  - Bend
p  - pull off            Suffixes for bend
t  - tap                 f  - full bend    h - half bend
ph - pinched harmonic    q  - quarter bend t - tap bend
*  - see comment         ^  - Hold bend    r release bend
x  - Stuccatto           ~  - vibrato bend
,  - slight palm mute    () - ghost note, sustained note
"  - tremolo note        <> - Trill

Tuning: Standard (EADGBe)

Listen to the song for exact timing.

Riff 1
|-------------------------------------------------------------------|
|-------------------------------------------------------------------|
|-------------------------------------------------------------------|
|---------3"--------3"---------3"-------4"---2"---------------------|
|-2"------1"2"------1"-2"------1"2"-----5"---3"---------------------|
|-0"--------0"---------0"--------0"---------------------------------|



Riff 2
|-------------------------------------------------------------------|
|-------------------------------------------------------------------|
|-------------------------------------------------------------------|
|--5p4---4---445p4---4---445p4---4---445p4---4----------------------|
|-------------------------------------------------------------------|
|-------------------------------------------------------------------|



Riff 3a
 Gtr 1
|-------------------------------------------------------------------|
|-------------------------------------------------------------------|
|-------------------------------------------------------------------|
|--9---9---9-9-9---9---9-9-7---7--7-7---2---5-----------------------|
|--9---9---9-9-9---9---9-9-7---7--7-7---2---5-----------------------|
|--7---7---7-7-7---7---7-7-5---5--5-5---0---3-----------------------|
| Gtr 2                                                             |
|-------------------------------------------------------------------|
|-------------------------------------------------------------------|
|-------------------------------------------------------------------|
|--5p4---4---445p4---4---445p4---4---445p4---4----------------------|
|-------------------------------------------------------------------|
|-------------------------------------------------------------------|



Riff 3b
|-------------------------------------------------------------------|
|-------------------------------------------------------------------|
|-------------------------------------------------------------------|
|--9---9---9-9-9---9---9-9-7---7--7-7---2---5-----------------------|
|--9---9---9-9-9---9---9-9-7---7--7-7---2---5-----------------------|
|--7---7---7-7-7---7---7-7-5---5--5-5---0---3-----------------------|



Riff 4
|-------------------------------------------------------------------|
|-------------------------------------------------------------------|
|--------------5"---------------------------------------------------|
|--------------3"---5"----------------------------------------------|
|-4"-----2"---------3"---4"------2"----23202323---------------------|
|-2"-----0"--------------2"------0"---------------------------------|
                                       ........


Riff 5
|--------------------------------------------------------------|
|--------------------------------------------------------------|
|------------------------------------------------------2"------|
|------------------------------------------------------4"------|
|--7"------6"7"6----4"------3"---7"-----6"7"6"--4"-------------|
|--5"------4"5"4----2"------1"---5"-----4"5"4"--2"-------------|


End
|------------|
|------------|
|------------|
|-4----------|
|-3----------|
|-2----------|




STRUCTURE:
Riff 1   x4
Riff 2   x1
Riff 3a  x2
Riff 3b  x2
Riff 4   x6
Riff 5   x4
Riff 4   x4
Riff 5   x4
End      x1


Please email me with any corrections, etc. And if you use the tab, rate it!
Honest feedback is the only way I'll improve.

  Visit MetalTabs.com for more metal tablature

bottom separator

Contact Us | Privacy Policy | Disclaimer | Legal Notice
Copyright © 2001-2014 MetalTabs.com. All Rights Reserved.