top separator

Home

Forum

What's New

Submit a Tab

FAQ

Links

Contact Us

Link to Us

MetalTabs.com logo

Bands

0-9

A

B

C

D

E

F

G

H

I

J

K

L

M

N

O

P

Q

R

S

T

U

V

W

X

Y

Z

Search

What

Where
 

Avulsed - "Virtual Massacre" Guitar Tab

Plain Text Version
More Avulsed Tabs

Hits: 2256
Rated: 5.00 out of 5 (1 vote)
Updated: 2005-07-26 05:45:54

 

By:

Robbie Filth

sendpm.gif

email.gif

Important note
This tab is available online because we obtained explicit permission from Avulsed or their label.


#----------------------------------PLEASE NOTE---------------------------------#
#This file is the author's own work and represents their interpretation of the #
#song. You may only use this file for private study, scholarship, or research. #
#Unless specified otherwise, this is NOT an official tab from the band members.#
#------------------------------------------------------------------------------#

  Visit MetalTabs.com for more metal tablature
  
Band: Avulsed
Album: Stabwound Orgasm
Song: Virtual Massacre
Record Label: WWIII
Tuning: Bb F Bb D# G C

LISTEN TO SONG FOR ALL CORRECT RYTHMS

------------------------------------------------
------------------------------------------------
------------------------------------------------
------------------------------------------------
-22-22-2-2222-2-22-22-2222-22-22-2-2222-2-22-22-
-22-22-2-2222-2-22-22-2222-22-22-2-2222-2-22-22-
pm..............................................
repeats this kindof rythm for quite a while

---------------------------------------------------------------------------
---------------------------------------------------------------------------
---------------------------------------------------------------------------
---------------------------------------------------------------------------
-2/10-10-2-5-2-2222-2/15-15-2-5-2-2222-2/12-12-2-5-2-2222-2/8-8-2-5-2-2222-
-2/10-10-2-5-2-2222-2/15-15-2-5-2-2222-2/12-12-2-5-2-2222-2/8-8-2-5-2-2222-X2
               pm..               ....               ....             ....

------------------------------------------------
------------------------------------------------
------------------------------------------------
------------------------------------------------
-22-22-2-2222-2-22-22-2222-22-22-2-2222-2-22-22-
-22-22-2-2222-2-22-22-2222-22-22-2-2222-2-22-22-
pm..............................................
repeats this kindof rythm for quite a while

---------------------------------------------------------------------------
---------------------------------------------------------------------------
---------------------------------------------------------------------------
---------------------------------------------------------------------------
-2/10-10-2-5-2-2222-2/15-15-2-5-2-2222-2/12-12-2-5-2-2222-2/8-8-2-5-2-2222-
-2/10-10-2-5-2-2222-2/15-15-2-5-2-2222-2/12-12-2-5-2-2222-2/8-8-2-5-2-2222-X2
               pm..               ....               ....             ....

------------------------------------------------------------
------------------------------------------------------------
------------------------------------------------------------
------------------------------------------------------------
-55555555555555555555555555544444444444-10-10-7-7-10-10-7-7-
-55555555555555555555555555544444444444-10-10-7-7-10-10-7-7-X4
 pm.................................... .. .. . . .. .. . .

-------------------------------------- 
-------------------------------------- 
-------------------------------------- 
-------------------------------------- 
-544444454444-5/4\5-87777778777-3/2\3- 
-544444454444-5/4\5-87777778777-3/2\3- 
  pm.... ....       ...... ...         
                                        X2
----------------------------------     
----------------------------------     
----------------------------------     
----------------------------------     
-544444454444-5/4\5-87777778777-2-     
-544444454444-5/4\5-87777778777-2-     
  pm.... ....       ...... ...         

------------------------------------------------
------------------------------------------------
------------------------------------------------
------------------------------------------------
-22-22-2-2222-2-22-22-2222-22-22-2-2222-2-22-22-
-22-22-2-2222-2-22-22-2222-22-22-2-2222-2-22-22-
pm..............................................
repeats this kindof rythm for quite a while

------------------------------------------------------------
------------------------------------------------------------
------------------------------------------------------------
------------------------------------------------------------
-55555555555555555555555555544444444444-10-10-7-7-10-10-7-7-
-55555555555555555555555555544444444444-10-10-7-7-10-10-7-7-X4
 pm.................................... .. .. . . .. .. . .

-------------------------------------- 
-------------------------------------- 
-------------------------------------- 
-------------------------------------- 
-544444454444-5/4\5-87777778777-3/2\3- 
-544444454444-5/4\5-87777778777-3/2\3- 
  pm.... ....       ...... ...         
                                        X2
----------------------------------     
----------------------------------     
----------------------------------     
----------------------------------     
-544444454444-5/4\5-87777778777-2-     
-544444454444-5/4\5-87777778777-2-     
  pm.... ....       ...... ...         

-------
-------
-------
-------
--2-2--
--2-2--X4

---------
---------
---------
---------
--2-2----
--2-2/18-

------------
------------
------------
------------
--2-2-------
--2-2/18\2--

---------
---------
---------
---------
--2-2----
--2-2/18-

------------
------------
------------
------------
--2-2-------
--2-2/18\2--

gtr1         gtr2
----------------------
----------------------
----------------------
-12-10-8-7------------
-------------8-7-5-4--
-------------8-7-5-4--X4

-------------------------------------- 
-------------------------------------- 
-------------------------------------- 
-------------------------------------- 
-544444454444-5/4\5-87777778777-3/2\3- 
-544444454444-5/4\5-87777778777-3/2\3- 
  pm.... ....       ...... ...         
                                        X2
----------------------------------     
----------------------------------     
----------------------------------     
----------------------------------     
-544444454444-5/4\5-87777778777-2-     
-544444454444-5/4\5-87777778777-2-     
  pm.... ....       ...... ...         

------------------------------------------------
------------------------------------------------
------------------------------------------------
------------------------------------------------
-22-22-2-2222-2-22-22-2222-22-22-2-2222-2-22-22-
-22-22-2-2222-2-22-22-2222-22-22-2-2222-2-22-22-
pm..............................................
repeats this kindof rythm for quite a while

---------------------------------------------------------------------------
---------------------------------------------------------------------------
---------------------------------------------------------------------------
---------------------------------------------------------------------------
-2/10-10-2-5-2-2222-2/15-15-2-5-2-2222-2/12-12-2-5-2-2222-2/8-8-2-5-2-2222-
-2/10-10-2-5-2-2222-2/15-15-2-5-2-2222-2/12-12-2-5-2-2222-2/8-8-2-5-2-2222-X2
               pm..               ....               ....             ....

gtr1         gtr2
-------------------------------------
-(14)-(12)-(10)-(9)------------------
-------------------------------------
-12-10-8-7---------------------------
----------------------------8-7-5-4--
----------------------------8-7-5-4--X4
(14)4th time only

------------------------------------------------
------------------------------------------------
------------------------------------------------
------------------------------------------------
-22-22-2-2222-2-22-22-2222-22-22-2-2222-2-22-22-
-22-22-2-2222-2-22-22-2222-22-22-2-2222-2-22-22-
pm..............................................
repeats this kindof rythm for quite a while

Any correction mail them to septic_flesh241@hotmail.com

  Visit MetalTabs.com for more metal tablature

bottom separator

Contact Us | Privacy Policy | Disclaimer | Legal Notice
Copyright © 2001-2014 MetalTabs.com. All Rights Reserved.