top separator

Home

Forum

What's New

Submit a Tab

FAQ

Links

Contact Us

Link to Us

MuSpy.com

MetalTabs.com logo

Bands

0-9

A

B

C

D

E

F

G

H

I

J

K

L

M

N

O

P

Q

R

S

T

U

V

W

X

Y

Z

Search

What

Where
 

Asmegin - "Vargr i Véum - Eilivs Bane" Bass Tab

Plain Text Version
More Asmegin Tabs

Hits: 2484
Rated: 5.00 out of 5 (1 vote)
Updated: 2005-07-26 05:40:45

 

By:

sendpm.gif

email.gif

Important note
This tab is available online because we obtained explicit permission from Asmegin or their label.


#----------------------------------PLEASE NOTE---------------------------------#
#This file is the author's own work and represents their interpretation of the #
#song. You may only use this file for private study, scholarship, or research. #
#Unless specified otherwise, this is NOT an official tab from the band members.#
#------------------------------------------------------------------------------#

  Visit MetalTabs.com for more metal tablature
  
Band:  Asmegin
Album: Hin Vordende Sod & So
Song:  Vargr i Veum

Copyright (c)  Napalm Records 2003

Transcribed By: crok
Email:          crok1@gmx.de


Tuning E A D G

Riff 1 (Intro)
|-----------------------------------------|
|-----------------------------------------|
|---5h6p5-5--5h6p5-5--5h6p5-3--5h6p5-5----|     x 2      - STOP -
|-----------------------------------------|

Riff 2 (you can also play riff 4 – but this one sounds much better I think)
|-----------------------------------------|
|--------------------------------3--------|
|---5-----6-5------5-3-----6-5-6---6------|     x 2
|-----3-5------3-5-----3-5----------------|

Riff 3
|-----------------------------------------|
|-----------------------------------------|
|---5-5-5h6p5-5-5-5h6p5-3-3-5h6p5-5-5-----|     x 2
|-----------------------------------------|

Riff 4
|-----------------------------------------|
|---------------------------------33------|
|---555555556655555663333333665566—-66----|     x 2
|-----------------------------------------|

Bridge
|----------------|
|----------------|
|-------------76-|
|---5--5—-5--5---|

Riff 5
|------------------------------------------|
|------------------------------------------|
|--76--767--76-767-------------------------|    x 3
|-5--75----5--7----------------------------|

Riff 6
|------------------------------------------|
|------------------------------------------|
|-555555553333333311111111000011113333-----|    x 2
|------------------------------------------|


Riff 7
|------------------------------------------|
|--7578757-5356535-3134313-----------------|
|-5-------3-------1-------00001133---------|    x 1
|------------------------------------------|

Riff 8 (very fast)      (the end of the riff is the same as for guitar)
|-------------------------------------------------------------------|
|-------------------------------------------------------------------|
|-5555555555555555555555555555555555555555555555555h6p53h4p31h2p1---|   x 2
|-------------------------------------------------------------------|

Riff 9
|--------------------------------------------------|
|--------------------------------------------------|
|-5-555555555-4-444444444-5-555555555-4-444444444--|    x 2
|--------------------------------------------------|

Riff 10
|-------------------------------|
|-------6h77777------7p66666----|
|-555555-------444444-----------|       x 2
|-------------------------------|



Then everything from beginn...



Riff 1 (end)
|-----------------------------------------|
|-----------------------------------------|
|---5h6p5-5--5h6p5-5--5h6p5-3--5h6p5-5----|     x 2      - STOP -
|-----------------------------------------|


END


At the fast parts (like riff 8) I had some problems to count
the single notes – here you have to play by ear, sorry…

  Visit MetalTabs.com for more metal tablature

bottom separator

Contact Us | Privacy Policy | Disclaimer | Legal Notice
Copyright © 2001-2014 MetalTabs.com. All Rights Reserved.