top separator

Home

Forum

What's New

Submit a Tab

FAQ

Links

Contact Us

Link to Us

MuSpy.com

MetalTabs.com logo

Bands

0-9

A

B

C

D

E

F

G

H

I

J

K

L

M

N

O

P

Q

R

S

T

U

V

W

X

Y

Z

Search

What

Where
 

Kyuss - "Thumb" Bass Tab

Plain Text Version
More Kyuss Tabs

Hits: 3420
Rated: 1.00 out of 5 (1 vote)
Updated: 2005-07-26 05:35:14

 

By:

Severed

sendpm.gif

email.gif

Important note
We did our best to reach Kyuss and ask for their permission to publish this tab. Unfortunately they did not respond to our requests or we could not find a way to contact them. This tab is available online until Kyuss tells us to take it down.


#----------------------------------PLEASE NOTE---------------------------------#
#This file is the author's own work and represents their interpretation of the #
#song. You may only use this file for private study, scholarship, or research. #
#Unless specified otherwise, this is NOT an official tab from the band members.#
#------------------------------------------------------------------------------#

  Visit MetalTabs.com for more metal tablature
  
Kyuss
Thumb
Blues for the Red Sun
C F A# D#
Elektra Records 1992
Adam Turner-Heffer Newnoise@hotmail.co.uk

Intro/Verse riff:

|-----------------------------------|
|.---------------------------------.|
|.---------------------------------.|
|--5-5-655-5-5-655-5-5-655-5-5-8-8--|


Chorus riff:

|--------------------------------------------10-14-----14-17-17---|
|------------------7-----7----------------710-----12-12-----------|
|--8-8-888-8-8-888---5-5---8-8-8-8-8-8-88-------------------------|
|-----------------------------------------------------------------|


|-------------------------------|
|.-----------------7------------|
|.-8-8-888-8-8-888---5-5--------|
|------------------------8-8-8--|

Verse
Chourus

Outro:

|--------------------------------|
|--------------------------------|
|--------------------------------|
|--5--5-5-8--8-7--7--7/11-10-11--|

enjoi.

  Visit MetalTabs.com for more metal tablature

bottom separator

Contact Us | Privacy Policy | Disclaimer | Legal Notice
Copyright © 2001-2014 MetalTabs.com. All Rights Reserved.