top separator

Home

Forum

What's New

Submit a Tab

FAQ

Links

Contact Us

Link to Us

MuSpy.com

MetalTabs.com logo

Bands

0-9

A

B

C

D

E

F

G

H

I

J

K

L

M

N

O

P

Q

R

S

T

U

V

W

X

Y

Z

Search

What

Where
 

Kyuss - "Gardenia" Bass Tab

Plain Text Version
More Kyuss Tabs

Hits: 8784
Rated: 3.00 out of 5 (2 votes)
Updated: 2005-07-26 05:34:56

 

By:

Severed

sendpm.gif

email.gif

Important note
We did our best to reach Kyuss and ask for their permission to publish this tab. Unfortunately they did not respond to our requests or we could not find a way to contact them. This tab is available online until Kyuss tells us to take it down.


#----------------------------------PLEASE NOTE---------------------------------#
#This file is the author's own work and represents their interpretation of the #
#song. You may only use this file for private study, scholarship, or research. #
#Unless specified otherwise, this is NOT an official tab from the band members.#
#------------------------------------------------------------------------------#

  Visit MetalTabs.com for more metal tablature
  
Kyuss
Gardenia
Welcome to Sky Valley
C F A# D#
Elektra Records 1994
Adam Turner-Heffer newnoise@hotmail.co.uk
note: this took me about an hour and a half.


Intro Riff 0:14
|-----------------------------------------|
|-----------------------------------------|
|----------------------------10-----------|
|-10-10-10-10/12-12-12-10h12---h12--10h12-| x3

0:23
|--------------------------------------------|
|----------------------12-14-14-12-----------|
|---------------------------------10h12------|
|-10-10-10-10/12-12-12-----------------10h12-|

0:26
|-------------------------------------------------||
|-------------------------------------------------||
|-2--3-3-3-3-3-3-3-3-3-3-3--2/3-3-3-3-3-3/5-5-5-5-||
|-------------------------------------------------||

0:32
|-----------------------------------------|
|-----------------------------------------|
|----------------------------10-----------|
|-10-10-10-10/12-12-12-10h12---h12--10h12-|

|--------------------------------------------|
|----------------------12-14-14-12-----------|
|---------------------------------10h12------|
|-10-10-10-10/12-12-12-----------------10h12-|

0:38
|-------------------------------------------------||
|-------------------------------------------------||
|-2--3-3-3-3-3-3-3-3-3-3-3--2/3-3-3-3-3-3/5-5-5-5-||
|-------------------------------------------------||

0:44
|----------------------------------------------------------------------------||
|------------------------------------------------------12-14-14-12-----------||
|-10/12-12-12-12---------10h12--10-10-10-10/12-12-12-12-----------10h12------||
|----------------0~-10h12----------------------------------------------10h12-||

0:50
|-----------------------------------------|
|-----------------------------------------|
|----------------------------10-----------|
|-10-10-10-10/12-12-12-10h12---h12--10h12-|

|--------------------------------------|
|--------------------------------------|
|--------------------------3h5-----3h5-|
|-10-10-10-10/12-12-12-3h5-----3h5-----|

1:02
|-----------------------------------------|
|-----------------------------------------|
|----------------------------10-----------|
|-10-10-10-10/12-12-12-10h12---h12--10h12-| x3

|--------------------------------------|
|--------------------------------------|
|--------------------------3h5-----3h5-|
|-10-10-10-10/12-12-12-3h5-----3h5-----|

|-----------------------------------------|
|-----------------------------------------|
|----------------------------10-----------|
|-10-10-10-10/12-12-12-10h12---h12--10h12-| x3

|----------------------------------------------------------------------------||
|------------------------------------------------------12-14-14-12-----------||
|-10/12-12-12-12---------10h12--10-10-10-10/12-12-12-12-----------10h12------||
|----------------0~-10h12----------------------------------------------10h12-||

1:27
|-------------------------------------------------||
|-------------------------------------------------||
|-2--3-3-3-3-3-3-3-3-3-3-3--2/3-3-3-3-3-3/5-5-5-5-||
|-------------------------------------------------||

1:33
|----------------------------------------------------------------------------||
|------------------------------------------------------12-14-14-12-----------||
|-10/12-12-12-12---------10h12--10-10-10-10/12-12-12-12-----------10h12------||
|----------------0~-10h12----------------------------------------------10h12-||

1:39
|-------------------------------------------------||
|-------------------------------------------------||
|-2--3-3-3-3-3-3-3-3-3-3-3--2/3-3-3-3-3-3/5-5-5-5-||
|-------------------------------------------------||

1:45
|----------------------------------------------------------------------------||
|------------------------------------------------------12-14-14-12-----------||
|-10/12-12-12-12---------10h12--10-10-10-10/12-12-12-12-----------10h12------||
|----------------0~-10h12----------------------------------------------10h12-||

1:51
|--------------------------------------|
|--------------------------------------|
|--------------------------------------|
|-10-10-10-10/12-12-12-0-0-0-0-3h5-----|

2:06
|--------------------------------------|
|--------------------------------------|
|--------------------------3h5-----3h5-|
|-10-10-10-10/12-0-0-0-3h5-----3h5-----|

2:09
|--------------------------------------|
|--------------------------------------|
|--------------------------------------|
|-10-10-10-10/12-12-12-0-0-0-0-3h5-----| x2

|--------------------------------------------|
|----------------------12-14-14-12-----------|
|---------------------------------10h12------|
|-10-10-10-10/12-12-12-----------------10h12-|

2:22
|-------------------------------------------------||
|-------------------------------------------------||
|-2--3-3-3-3-3-3-3-3-3-3-3--2/3-3-3-3-3-3/5-5-5-5-||
|-------------------------------------------------||

|----------------------------------------------------------------------------||
|------------------------------------------------------12-14-14-12-----------||
|-10/12-12-12-12---------10h12--10-10-10-10/12-12-12-12-----------10h12------||
|----------------0~-10h12----------------------------------------------10h12-||

|-------------------------------------------------||
|-------------------------------------------------||
|-2--3-3-3-3-3-3-3-3-3-3-3--2/3-3-3-3-3-3/5-5-5-5-||
|-------------------------------------------------||

|----------------------------------------------------------------------------||
|------------------------------------------------------12-14-14-12-----------||
|-10/12-12-12-12---------10h12--10-10-10-10/12-12-12-12-----------10h12------||
|----------------0~-10h12----------------------------------------------10h12-||

2:$5
|------------------------|
|------------------------|
|------------------------|
|--10h12-0--0--0--0--0-3-|

|-------------------------|
|-------------------------|
|-------------------------|
|--3h5-0-0xx0-0xx0-0xx0-3-|

|------------------------------|
|------------------------------|
|--10h12----10h12---10h12------|
|--------0-0-----0-0-----10h12-|

|-------------------------|
|-------------------------|
|-------------------------|
|--3h5-0-0xx0-0xx0-0xx0-3-|

|---------------------------|
|---------------------------|
|----------xx-12-12-12-12-12|
|--3h5-0-0------------------|

3:08
|-----------------------------------|
|-----------------------------------|
|----------10-----------------10----|
|--10h12-12--12--12-12--10h12---12--|

|-----------------------------------|
|-----------------------------------|
|----------10-------------------5---|
|--10h12-10--12-12-12-12///-3-5-----|

|-----------------------------------|
|-----------------------------------|
|----------10-----------------10----|
|--10h12-12--12--12-12--10h12---12--|

|---------------------------------|
|-------12h14---------------10h12-|
|------------10h12-----10h12------|
|--10h12----------10h12-----------|

|-----------------------------------|
|-----------------------------------|
|----------10-----------------10----|
|--10h12-12--12--12-12--10h12---12--|

|-----------------------------------|
|-----------------------------------|
|----------10-------------------5---|
|--10h12-10--12-12-12-12///-3-5-----|

|-----------------------------------|
|-----------------------------------|
|----------10-----------------10----|
|--10h12-12--12--12-12--10h12---12--|

|-------------------------------|
|---12-----14------/17-17-17-17-|
|-10--10-12---12-15-------------|
|-------------------------------|

|-----------------------------------|
|-----------------------------------|
|----------10-----------------10----|
|--10h12-12--12--12-12--10h12---12--|

|-----------------------------------|
|-----------------------------------|
|----------10-------------------5---|
|--10h12-10--12-12-12-12///-3-5-----|

|-----------------------------------|
|-----------------------------------|
|----------10-----------------10----|
|--10h12-12--12--12-12--10h12---12--|

|---------------------------------------------|
|-14-12-12------------------------------------|
|---------14-12-12--12-10-10---------12-14-14-|
|---------------------------12-10-10----------|

|-----------------------------------|
|-----------------------------------|
|----------10-----------------10----|
|--10h12-12--12--12-12--10h12---12--|

|-----------------------------------|
|-----------------------------------|
|----------10-------------------5---|
|--10h12-10--12-12-12-12///-3-5-----|

|-----------------------------------|
|-----------------------------------|
|----------10-----------------10----|
|--10h12-12--12--12-12--10h12---12--|

|---------------------------------------------|
|-14-14-12------------------------------------|
|---------14-14-12--12-12-10---------12-14-14-|
|---------------------------12-12-10----------|

|-----------------------------------|
|-----------------------------------|
|----------10-----------------10----|
|--10h12-12--12--12-12--10h12---12--|

|-----------------------------------|
|-----------------------------------|
|----------10-------------------5---|
|--10h12-10--12-12-12-12///-3-5-----|

|-----------------------------------|
|-----------------------------------|
|----------10-----------------10----|
|--10h12-12--12--12-12--10h12---12--|

|------------------------------------|
|-----------------------12-12--14-14-|
|----------10h12-12--10------12------|
|--10h12-12--------------------------|

|-----------------------------------|
|-----------------------------------|
|----------10-----------------10----|
|--10h12-12--12--12-12--10h12---12--|

|-----------------------------------|
|-----------------------------------|
|----------10-------------------5---|
|--10h12-10--12-12-12-12///-3-5-----|

|-----------------------------------|
|-----------------------------------|
|----------10-----------------10----|
|--10h12-12--12--12-12--10h12---12--|

|-------------------------------------------------|
|--14-14-12-12------------------------------------|
|-------------14-14-12-12-10-10-12-12-------------|
|------------------------------------10-10-12-12\\|

|-----------------------------------|
|-----------------------------------|
|----------10-----------------10----|
|--10h12-12--12--12-12--10h12---12--|

|-----------------------------------|
|-----------------------------------|
|----------10-------------------5---|
|--10h12-10--12-12-12-12///-3-5-----|

|-----------------------------------|
|-----------------------------------|
|----------10-----------------10----|
|--10h12-12--12--12-12--10h12---12--|

|-------------------------------------------------|
|--14-14-12-12---------------------------12/14\12-|
|-------------14-14-12-12-10-10-12-12h14----------|
|-------------------------------------------------|

|-----------------------------------|
|-----------------------------------|
|----------10-----------------10----|
|--10h12-12--12--12-12--10h12---12--|

|-----------------------------------|
|-----------------------------------|
|----------10-------------------5---|
|--10h12-10--12-12-12-12///-3-5-----|

|-----------------------------------|
|-----------------------------------|
|----------10-----------------10----|
|--10h12-12--12--12-12--10h12---12--|

|------------------------|
|-----------------12--14-|
|-------10-12-//10--12---|
|--10-12-----------------|

|-----------------------------------|
|-----------------------------------|
|----------10-----------------10----|
|--10h12-12--12--12-12--10h12---12--|

|-----------------------------------|
|-----------------------------------|
|----------10-------------------5---|
|--10h12-10--12-12-12-12///-3-5-----|

|-----------------------------------|
|-----------------------------------|
|----------10-----------------10----|
|--10h12-12--12--12-12--10h12---12--|

|----------------------------------------------|
|--14-14-14-14-12-12-12-12---------------------|
|-------------------------14-14-14-14-12/14\10-|
|----------------------------------------------|

|-----------------------------------|
|-----------------------------------|
|----------10-----------------10----|
|--10h12-12--12--12-12--10h12---12--|

|-----------------------------------|
|-----------------------------------|
|----------10-------------------5---|
|--10h12-10--12-12-12-12///-3-5-----|

|-----------------------------------|
|-----------------------------------|
|----------10-----------------10----|
|--10h12-12--12--12-12--10h12---12--| x3

|---------------------------------------|
|---------------/14-14-12-12------------|
|----------10---------------14-14-12-12-|
|--10h12-10--12-------------------------|

|-----------------------------------|
|-----------------------------------|
|----------10-----------------10----|
|--10h12-12--12--12-12--10h12---12--|

|---------------------------------|
|---------------------------------|
|----------10------------5-5------|
|--10h12-10--12-3-3-3-5-5---5-5---|

|-----------------------------------|
|-----------------------------------|
|----------10-----------------10----|
|--10h12-12--12--12-12--10h12---12--|

|-----------------------------------|
|-----------------------------------|
|----------10-------------------5---|
|--10h12-10--12-12-12-12///-3-5-----|

|-----------------------------------|
|-----------------------------------|
|----------10-----------------10----|
|--10h12-12--12--12-12--10h12---12--|

|----------------|
|--14------------|
|-----14--12--10-|
|----------------|

|-----------------------------------| --|
|-----------------------------------|   |
|----------10-----------------10----|   |
|--10h12-12--12--12-12--10h12---12--|   |--
                                          | x4
|-----------------------------------|   |--
|-----------------------------------|   |
|----------10-------------------5---|   |
|--10h12-10--12-12-12-12///-3-5-----| --|

|----------------------------------------|
|----------------------------------------|
|----------------------------------------|
|--10h12-12--12-12--12-12--12-12--12-12\\|

5:14
|-------------------------------------------------||
|-------------------------------------------------||
|-2--3-3-3-3-3-3-3-3-3-3-3--2/3-3-3-3-3-3/5-5-5-5-||
|-------------------------------------------------||

|----------------------------------------------------------------------------||
|------------------------------------------------------12-14-14-12-----------||
|-10/12-12-12-12---------10h12--10-10-10-10/12-12-12-12-----------10h12------||
|----------------0~-10h12----------------------------------------------10h12-||

|-------------------------------------------------||
|-------------------------------------------------||
|-2--3-3-3-3-3-3-3-3-3-3-3--2/3-3-3-3-3-3/5-5-5-5-||
|-------------------------------------------------||

|----------------------------------------------------------------------------||
|------------------------------------------------------12-14-14-12-----------||
|-10/12-12-12-12---------10h12--10-10-10-10/12-12-12-12-----------10h12------||
|----------------0~-10h12----------------------------------------------10h12-||

5:37
|------------------------------------------|
|------------------------------------------|
|---------------------------------------10-|
|--10h12-12--12-12--12-12--12-12--10-12----|

|----------------------------------------|
|----------------------------------------|
|-------------------------------------5--|
|--10h12-12--12-12--12-12--12-12\\3h5----| Alternate between two

this is played on two separate occasions towards the end:
|---------------------------------------|
|--12h14-14-12-12-----------------------|
|----------------14-14-12-12-12p10------|
|---------------------------------12p10-|


fade out.

enjoi.

  Visit MetalTabs.com for more metal tablature

bottom separator

Contact Us | Privacy Policy | Disclaimer | Legal Notice
Copyright © 2001-2014 MetalTabs.com. All Rights Reserved.