top separator

Home

Forum

What's New

Submit a Tab

FAQ

Links

Contact Us

Link to Us

MetalTabs.com logo

Bands

0-9

A

B

C

D

E

F

G

H

I

J

K

L

M

N

O

P

Q

R

S

T

U

V

W

X

Y

Z

Search

What

Where
 

Kyuss - "One Inch Man" Bass Tab

Plain Text Version
More Kyuss Tabs

Hits: 5084
Updated: 2005-07-26 05:33:57

 

By:

Severed

sendpm.gif

email.gif

Important note
We did our best to reach Kyuss and ask for their permission to publish this tab. Unfortunately they did not respond to our requests or we could not find a way to contact them. This tab is available online until Kyuss tells us to take it down.


#----------------------------------PLEASE NOTE---------------------------------#
#This file is the author's own work and represents their interpretation of the #
#song. You may only use this file for private study, scholarship, or research. #
#Unless specified otherwise, this is NOT an official tab from the band members.#
#------------------------------------------------------------------------------#

  Visit MetalTabs.com for more metal tablature
  
Kyuss
One Inch Man
And The Circus Leaves Town...
C F A# D#
Elektra Records 1995
Adam Turner-Heffer newnoise@hotmail.co.uk

Main Riff:
---------12h10----------------------
--------------12--------------------
--9--9-9----------9-9-----7-9-------
----------------------7-9-----------
This comes in with the drums ^^

Fill:
---------12h10--------9h11-9h11-----
--------------12--------------------
--9--9-9----------9-9---------------
------------------------------------

Chorus:
---------------------------------
---------------------------------
---------------------------------
-5-5-5-5-5-5-5-5-7-7-7-7-8-8-8-8-

Bridge:
------------------
------------------
-----------3-2-0--
-2-2-2-2-2--------

End Bridge:
-------------5-4-2-
-----4-2-----------
---------4-3-------
-2-2---------------

Intro (no bass)
Main Riff
then Chorus and main riff alternating.
Main Riff
Main Riff (guitar solo)
Chorus/Main Riff Alternate
Bridge
End Bridge
Last Chorus/Main Riff alt.
End.

Last Chorus
-----------------------------------------
-----------------------------------------
-----------------------------------------
-9-9-9-9-9-9-9-9-11-11-11-11-12-12-12-12-

End:
--------------------------------------
--------------------------------------
--------------------------------------
-9-9-9-9-9-9-9-9-11-11-11-11-12*----2-


enjoi.

  Visit MetalTabs.com for more metal tablature

bottom separator

Contact Us | Privacy Policy | Disclaimer | Legal Notice
Copyright © 2001-2014 MetalTabs.com. All Rights Reserved.