top separator

Home

Forum

What's New

Submit a Tab

FAQ

Links

Contact Us

Link to Us

MuSpy.com

MetalTabs.com logo

Bands

0-9

A

B

C

D

E

F

G

H

I

J

K

L

M

N

O

P

Q

R

S

T

U

V

W

X

Y

Z

Search

What

Where
 

Kyuss - "El Rodeo" Bass Tab

Plain Text Version
More Kyuss Tabs

Hits: 2713
Updated: 2005-07-26 05:33:49

 

By:

Severed

sendpm.gif

email.gif

Important note
We did our best to reach Kyuss and ask for their permission to publish this tab. Unfortunately they did not respond to our requests or we could not find a way to contact them. This tab is available online until Kyuss tells us to take it down.


#----------------------------------PLEASE NOTE---------------------------------#
#This file is the author's own work and represents their interpretation of the #
#song. You may only use this file for private study, scholarship, or research. #
#Unless specified otherwise, this is NOT an official tab from the band members.#
#------------------------------------------------------------------------------#

  Visit MetalTabs.com for more metal tablature
  
Kyuss
El Rodeo
...And The Circus Leaves Town
C F A# D#
Elektra records 1995
Adam Turner-Heffer newnoise@hotmail.co.uk

Intro riff: (x48)

-|.-------------11-----.|-
-|.----2-/--(9)-----9\-.|-
-|--2-------------------|-
-|----------------------|-

Other/Verse riff: (x8)

|------------------------------------------------------------------|
|----------------------------------0---------------0---------------|
|------------------------------------------------------------------|
|--3-3-3-3-3-3-3-4-2-2-2-2-2-2-2-2---0-0-0-0-0-0-0---0-0-0-0-0-0-0-|

Outro 1 (lots)

|-----------------------------------------|
|----------0--------------0---------------|
|-----------------------------------------|
|-3*--4-2*--0-0-0-0-0-0-0---0-0-0-0-0-0-0-|

Outro 2 (till the end)
|--------------------------------|
|-0--------------0---------------|
|--------------------------------|
|--0-0-0-0-0-0-0---0-0-0-0-0-0-0-|

enjoi.

  Visit MetalTabs.com for more metal tablature

bottom separator

Contact Us | Privacy Policy | Disclaimer | Legal Notice
Copyright © 2001-2014 MetalTabs.com. All Rights Reserved.