#----------------------------------PLEASE NOTE---------------------------------#
#This file is the author's own work and represents their interpretation of the #
#song. You may only use this file for private study, scholarship, or research. #
#Unless specified otherwise, this is NOT an official tab from the band members.#
#------------------------------------------------------------------------------#

  Visit MetalTabs.com for more metal tablature
  
--- CEPHALIC CARNAGE  ---
                              "Inside Is Out"
                     From album: "Anomalies"
                     Copyright Relapse Records 2005 
                     Transcribed by: Yura Kowalchuk
                     Contact:[yura@grindcore.net]
                             [yura_kowalchuk@mail.ru]
                    http://brutaltabs.musica.mustdie.ru

                            TABULATURE LEGEND:
                   " - tremolo             h - hammer on
                   ~ - vibrato             \ - slide down
                   p - pull off            / - slide down
                  tr - trill               ^ - pinch harmonics
                (),= - sustained note      b - bend string
                p.m. - palm muting         t - tapping

TUNING: dropped A (A, E, A, D, Gb, B)

[Acoustic intro] /guitar 1 clean/
|---------------|-------------|---------------|---------|
|---------------|-------------|---------------|---------|
|-------13------|-(13)--------|---------------|---------|
|----12---------|-------------|---------------|---------|
|-16------------|-------------|---------------|---------|
|---------------|-------------|---------------|---------|
|               |/guitar 2 clean/             |         |
|---------------|-------------|---------------|---------|
|---------------|-------------|---------------|---------|
|---------------|-------------|-------16------|-(16)----|
|---------------|-------------|----15---------|---------|
|---------------|-------------|-19------------|---------|
|---------------|-------------|---------------|---------|


||--------------------------|-------------------------|-
||o-------------------------|-------------------------|-
||--------13-------13-------|-------16-------16-------|-
||-----12-------12----12S11-|----15-------15----15S14-|-
||o-16-------16-------------|-19-------19-------------|-
||--------------------------|-------------------------|-

-|-------------------------|-------------------------||
-|-------------------------|------------------------o||
-|-------13-------13-------|-------16-------16-------||
-|----12-------12----12S11-|----15-------15----15S14-||
-|-16-------16-------------|-19-------19------------o||
-|-------------------------|-------------------------||

|------------------------------------------|
|------------------------------------------|
|------------------------------------------|
|-12---------------12-------------12-------|
|------16-16-16-------16-16-16-------16----|
|------------------------------------------|
|                                          |
|------------------------------------------|
|------------------------------------------|
|------------------------------------------|
|-12---------------12-------------12-------|
|-16---16-16-16-16-16-16-16-16-16-16-16-16-|
|------------------------------------------|
|                                          |
/guitar 3 distorted/                       |
|------------------------------------------|
|------------------------------------------|
|------------------------------------------|
|------------------------------------------|
|------------------------------------------|
|--0-0--------------------------------0--0-|
   . .                                .  .

|------------------------------------------|
|------------------------------------------|
|------------------------------------------|
|-15---------------15-------------15-------|
|------19-19-19-------19-19-19-------19----|
|------------------------------------------|
|                                          |
|------------------------------------------|
|------------------------------------------|
|------------------------------------------|
|-15---------------15-------------15-------|
|-19---19-19-19-19-19-19-19-19-19-19-19-19-|
|------------------------------------------|
|                                          |
|------------------------------------------|
|------------------------------------------|
|------------------------------------------|
|------------------------------------------|
|------------------------------------------|
|--1-1-------------------------------------|
   . .

|------------------------------------------|
|------------------------------------------|
|------------------------------------------|
|-12---------------12-------------12-------|
|------16-16-16-------16-16-16-------16----|
|------------------------------------------|
|                                          |
|------------------------------------------|
|------------------------------------------|
|------------------------------------------|
|-12---------------12-------------12-------|
|-16---16-16-16-16-16-16-16-16-16-16-16-16-|
|------------------------------------------|
|                                          |
|                                          |
|------------------------------------------|
|------------------------------------------|
|------------------------------------------|
|------------------------------------------|
|------------------------------------------|
|--0-0-----------------------------0--0----|
   . .                             .  .

|-----------------------------------------|
|-----------------------------------------|
|-----------------------------------------|
|-15--------------15-------------15-------|
|-----19-19-19-------19-19-19-------19----|
|-----------------------------------------|
|                                         |
|-----------------------------------------|
|-----------------------------------------|
|-----------------------------------------|
|-15--------------15-------------15-------|
|-19--19-19-19-19-19-19-19-19-19-19-19-19-|
|-----------------------------------------|
|                                         |
|                                         |
|-----------------------------------------|
|-----------------------------------------|
|-----------------------------------------|
|-----------------------------------------|
|-----------------------------------------|
|---------------------------------0--0----|
                                  .  .

|------------------------------------------|
|------------------------------------------|
|------------------------------------------|
|-12---------------12-------------12-------|
|------16-16-16-------16-16-16-------16----|
|------------------------------------------|
|                                          |
|------------------------------------------|
|------------------------------------------|
|------------------------------------------|
|-12---------------12-------------12-------|
|-16---16-16-16-16-16-16-16-16-16-16-16-16-|
|------------------------------------------|
|                                          |
|                                          |
|------------------------------------------|
|------------------------------------------|
|------------------------------------------|
|------------------------------------------|
|------------------------------------------|
|--0-0--------------------------------0--0-|
   . .                                .  .

|------------------------------------------|
|------------------------------------------|
|------------------------------------------|
|-15---------------15-------------15-------|
|------19-19-19-------19-19-19-------19----|
|------------------------------------------|
|                                          |
|------------------------------------------|
|------------------------------------------|
|------------------------------------------|
|-15---------------15-------------15-------|
|-19---19-19-19-19-19-19-19-19-19-19-19-19-|
|------------------------------------------|
|                                          |
|                                          |
|------------------------------------------|
|------------------------------------------|
|------------------------------------------|
|------------------------------------------|
|------------------------------------------|
|--3-3-------------------------------------|
   . .

|------------------------------------------|
|------------------------------------------|
|------------------------------------------|
|-12---------------12-------------12-------|
|------16-16-16-------16-16-16-------16----|
|------------------------------------------|
|                                          |
|------------------------------------------|
|------------------------------------------|
|------------------------------------------|
|-12---------------12-------------12-------|
|-16---16-16-16-16-16-16-16-16-16-16-16-16-|
|------------------------------------------|
|                                          |
|                                          |
|------------------------------------------|
|------------------------------------------|
|------------------------------------------|
|------------------------------------------|
|------------------------------------------|
|--0-0-----------------------------0--0----|
   . .                             .  .

|---------------------------------------------|
|---------------------------------------------|
|---------------------------------------------|
|-15--------------15--------------15----------|
|-----19-19-19-------19-19-19--------19-------|
|---------------------------------------------|
|                                             |
|---------------------------------------------|
|---------------------------------------------|
|---------------------------------------------|
|-15--------------15--------------15----------|
|-19--19-19-19-19-19-19-19-19-19--19-19-19----|
|---------------------------------------------|
|                                             |
|                                             |
|---------------------------------------------|
|---------------------------------------------|
|---------------------------------------------|
|---------------------------------------------|
|---------------------------------------------|
|----------------------------------0--0-------|
                                   .  .



||--------------------------------------------------|-
||o-------------------------------------------------|-
||--12----------------12----------------12-11-------|-
||--11----11-12-14-11-11----11-12-14-11-------14-12-|-
||o-------------------------------------------------|-
||--------------------------------------------------|-
|                                                   |
||--------------------------------------------------|-
||o-------------------------------------------------|-
||--12-12-------------12-12-------------12-11-------|-
||--11-11-11-12-14-11-11-11-11-12-14-11-------14-12-|-
||o-------------------------------------------------|-
||--------------------------------------------------|-

                                                     4x
-|---------------------------------------------------||
-|--------------------------------------------------o||
-|-15----------------15----------------15-14---------||
-|-14----14-15-17-14-14----14-15-17-14-------17-15---||
-|--------------------------------------------------o||
-|---------------------------------------------------||
 |                                                    |
-|---------------------------------------------------||
-|--------------------------------------------------o||
-|-15-15-------------15-15-------------15-14---------||
-|-14-14-14-15-17-14-14-14-14-15-17-14-------17-15---||
-|--------------------------------------------------o||
-|---------------------------------------------------||


|-------------------------------------------------|
|-------------------------------------------------|
|-------------------------------------------------|
|-11-11-10-10-10-10-11-11-10-10-10-10-11-11-10-10-|
|-15-15-15-15-15-15-15-15-15-15-15-15-15-15-15-15-|
|-------------------------------------------------|
|                                                 |
|-------------------------------------------------|
|-------------------------------------------------|
|-------------------------------------------------|
|-12----------------12----------------12----------|
|-------16-16-16----------16-16-16----------16-16-|
|-------------------------------------------------|
|                                                 |
|                                                 |
|-------------------------------------------------|
|-------------------------------------------------|
|-------------------------------------------------|
|-------------------------------------------------|
|-------------------------------------------------|
|--0--0--------------------------------------0--0-|


|---------------------------------------------------|
|---------------------------------------------------|
|---------------------------------------------------|
|-11-11-10-10-10-10-11-11-10-10-10-10-11-11-10-10---|
|-15-15-15-15-15-15-15-15-15-15-15-15-15-15-15-15---|
|---------------------------------------------------|
|                                                   |
|---------------------------------------------------|
|---------------------------------------------------|
|---------------------------------------------------|
|-13----------------13----------------13------------|
|-------17-17-17----------17-17-17----------17-17---|
|---------------------------------------------------|
|                                                   |
|                                                   |
|---------------------------------------------------|
|---------------------------------------------------|
|---------------------------------------------------|
|---------------------------------------------------|
|---------------------------------------------------|
|---------------------------------------------------|


|-------------------------------------------------|
|-------------------------------------------------|
|-------------------------------------------------|
|-11-11-10-10-10-10-11-11-10-10-10-10-11-11-10-10-|
|-15-15-15-15-15-15-15-15-15-15-15-15-15-15-15-15-|
|-------------------------------------------------|
|                                                 |
|-------------------------------------------------|
|-------------------------------------------------|
|-------------------------------------------------|
|-14----------------14----------------14----------|
|-------18-18-18----------18-18-18----------18-18-|
|-------------------------------------------------|
|                                                 |
|                                                 |
|-------------------------------------------------|
|-------------------------------------------------|
|-------------------------------------------------|
|-------------------------------------------------|
|-------------------------------------------------|
|--0--0--------------------------------------0--0-|
   .  .                                      .  .


|---------------------------------------------------|
|---------------------------------------------------|
|---------------------------------------------------|
|-11-11-10-10-10-10-11-11-10-10-10-10-11-11-10-10---|
|-15-15-15-15-15-15-15-15-15-15-15-15-15-15-15-15---|
|---------------------------------------------------|
|                                                   |
|---------------------------------------------------|
|---------------------------------------------------|
|---------------------------------------------------|
|-15----------------15----------------15------------|
|-------19-19-19----------19-19-19----------19-19---|
|---------------------------------------------------|
|                                                   |
|                                                   |
|---------------------------------------------------|
|---------------------------------------------------|
|---------------------------------------------------|
|---------------------------------------------------|
|---------------------------------------------------|
|--------------------------------------------0--0---|
                                             .  .

|-------------------------------------------------|
|-------------------------------------------------|
|-------------------------------------------------|
|-12-12-11-11-11-11-12-12-11-11-11-11-12-12-11-11-|
|-16-16-16-16-16-16-16-16-16-16-16-16-16-16-16-16-|
|-------------------------------------------------|
|                                                 |
|-------------------------------------------------|
|-------------------------------------------------|
|-------------------------------------------------|
|-13----------------13----------------13----------|
|-------17-17-17----------17-17-17----------17-17-|
|-------------------------------------------------|
|                                                 |
|                                                 |
|-------------------------------------------------|
|-------------------------------------------------|
|--4-----------------4-----------------4--4-------|
|--3-----------------3-----------------3--3-------|
|--2-----------------2-----------------2--2-------|
|--------3--3--3--3--------3--3--3--3--------3--3-|
         .  .  .  .        .  .  .  .        .  .


|---------------------------------------------------|
|---------------------------------------------------|
|---------------------------------------------------|
|-13-13-12-12-12-12-13-13-12-12-12-12-13-13-12-12---|
|-17-17-17-17-17-17-17-17-17-17-17-17-17-17-17-17---|
|---------------------------------------------------|
|                                                   |
|---------------------------------------------------|
|---------------------------------------------------|
|---------------------------------------------------|
|-14----------------14----------------14------------|
|-------18-18-18----------18-18-18----------18-18---|
|---------------------------------------------------|
|                                                   |
|                                                   |
|---------------------------------------------------|
|---------------------------------------------------|
|--7-----------------7-----------------7--7---------|
|--6-----------------6-----------------6--6---------|
|--5-----------------5-----------------5--5---------|
|--------6--6--6--6--------6--6--6--6--------6--6---|
         .  .  .  .        .  .  .  .        .  .

|-------------------------------------------------|
|-------------------------------------------------|
|-------------------------------------------------|
|-14-14-13-13-13-13-14-14-13-13-13-13-14-14-13-13-|
|-18-18-18-18-18-18-18-18-18-18-18-18-18-18-18-18-|
|-------------------------------------------------|
|                                                 |
|-------------------------------------------------|
|-------------------------------------------------|
|-------------------------------------------------|
|-15----------------15----------------15----------|
|-------19-19-19----------19-19-19----------19-19-|
|-------------------------------------------------|
|                                                 |
|                                                 |
|-------------------------------------------------|
|-------------------------------------------------|
|--4-----------------4-----------------4--4-------|
|--3-----------------3-----------------3--3-------|
|--2-----------------2-----------------2--2-------|
|--------3--3--3--3--------3--3--3--3--------3--3-|
         .  .  .  .        .  .  .  .        .  .

|----------------------------------------------------|
|----------------------------------------------------|
|----------------------------------------------------|
|-15-15-14-14-14-14-15-15-14-14-14-14-15-15-14-14----|
|-19-19-19-19-19-19-19-19-19-19-19-19-19-19-19-19----|
|----------------------------------------------------|
|                                                    |
|----------------------------------------------------|
|----------------------------------------------------|
|----------------------------------------------------|
|-16----------------16----------------16-------------|
|-------20-20-20----------20-20-20----------20-20----|
|----------------------------------------------------|
|                                                    |
|                                                    |
|----------------------------------------------------|
|----------------------------------------------------|
|--7-----------------7-----------------7--7----------|
|--6-----------------6-----------------6--6----------|
|--5-----------------5-----------------5--5----------|
|--------6--6--6--6--------6--6--6--6--------6--6----|
         .  .  .  .        .  .  .  .        .  .

|-------------------------------------------------|----------------|
|-------------------------------------------------|----------------|
|-------------------------------------------------|----------------|
|-16-16-15-15-15-15-16-16-15-15-15-15-16-16-15-15-|----------------|
|-20-20-20-20-20-20-20-20-20-20-20-20-20-20-20-20-|----------------|
|-------------------------------------------------|----------------|
|                                                 |                |
|-------------------------------------------------|----------------|
|-------------------------------------------------|----------------|
|-------------------------------------------------|----------------|
|-17----------------17----------------17----------|----------------|
|-------21-21-21----------21-21-21----------21-21-|----------------|
|-------------------------------------------------|----------------|
|                                                 |                |
|                                                 |                |
|-------------------------------------------------|-9-9---9-9------|
|-------------------------------------------------|-8-8---8-8------|
|--4-----------------4-----------------4--4-------|-7-7---7-7------|
|--3-----------------3-----------------3--3-------|-6-6---6-6------|
|--2-----------------2-----------------2--2-------|----------------|
|--------3--3--3--3--------3--3--3--3--------3--3-|----------------|
         .  .  .  .        .  .  .  .        .  .   . .   . .

[Riff 1]
|-----------------------------|-----------------------------|
|----------------4-3----------|-------------4-3-----4-3-----|
|-4-4--4-----1-2-----5-4-4-4--|-4-4-----1-2-----5-4-----5-4-|
|-3-3--3-3-4-------------3-3--|-3-3-3-4---------------------|
|-2-2--2-----------------2-2--|-2-2-------------------------|
|-----------------------------|-----------------------------|

|------------------------------|
|----------------4-3-----------|
|-4-4--4-----1-2-----5-4-3-3---|
|-3-3--3-3-4-------------2-2---|
|-2-2--2-----------------1-1---|
|------------------------------|

|---8-7------|----------------------------|
|-------10-8-|----------------------4-3---|
|------------|-4-4--4--4--4-----1-2-----4-|
|------------|-3-3--3--3--3-3-4---------3-|
|------------|-2-2--2--2--2-------------2-|
|------------|----------------------------|

|------------------------------|-------------------------------|
|--------------4-3-------------|-----------4-3-----4-3---------|
|-4--4-----1-2-----5-4-4-4--4--|-4-----1-2-----5-4-----5--4----|
|-3--3-3-4-------------3-3--3--|-3-3-4-------------------------|
|-2--2-----------------2-2--2--|-2-----------------------------|
|------------------------------|-------------------------------|

|------8-7-------------8-7------|-10-9------------8-7------10-9------|
|----------10-9------------10-9-|------12-11----------10-9-----------|
|-3-3-----------3-3--3----------|------------3-3----------------4-4--|
|-2-2-----------2-2--2----------|------------2-2----------------3-3--|
|-1-1-----------1-1--1----------|------------1-1----------------2-2--|
|-------------------------------|------------------------------------|

|---------8-7---------------------|
|-------------10-9-8-7------------|
|-4--4--4--------------10-9-8-7---|
|-3--3--3-------------------------|
|-2--2--2-------------------------|
|---------------------------------|

|------8-7------|-----------------------------|
|----------10-9-|----------------4-3----------|
|-4-4-----------|-4-4--4-----1-2-----5-4-4-4--|
|-3-3-----------|-3-3--3-3-4-------------3-3--|
|-2-2-----------|-2-2--2-----------------2-2--|
|---------------|-----------------------------|

|-----------------------------|-------------------------------|
|-------------4-3-----4-3-----|----------------4-3------------|
|-4-4-----1-2-----5-4-----5-4-|-4-4--4-----1-2-----5-4-3-3----|
|-3-3-3-4---------------------|-3-3--3-3-4-------------2-2----|
|-2-2-------------------------|-2-2--2-----------------1-1----|
|-----------------------------|-------------------------------|

       [Riff 2]
|-----|-----------------|-----------------|-----------------|--------------|
|-----|-----------------|-----------------|-----------------|--------------|
|-----|-----------------|-----------------|-----------------|--------------|
|-----|-----------------|-----------------|-----------------|--------------|
|-----|-----------------|-----------------|-----------------|--------------|
|-----|-7-3-7-6-5-7-3-7-|-6-5-7-7-3-7-6-5-|-7-3-7-6-5-7-3-7-|-6-5-7-7-3-7--|

|-------------|-------------||------------------|------------------||---------|
|-------------|-------------||o-----------------|-----------------o||---------|
|-------------|-------------||------------------|------------------||---------|
|-------------|-------------||------------------|------------------||---------|
|-3-2-3-2-1-2-|-3-2-3-4-3-4-||o-----------------|-----------------o||---------|
|-3-2-3-2-1-2-|-3-2-3-4-3-4-||--7-7-3-7-6-5-7-3-|-7-6-5-7-3-7-6-5--||-7-7-3-7-|
  . . . . . .   . . . . . .

[Riff 3]
||--------------|-----------------|-------------|--------------||
||o-------------|-----------------|-------------|-------------o||
||--------------|-----------------|-------------|--------------||
||--------------|-----------------|-------------|--------------||
||o-3-2-3-2-1-2-|-3-2-3-4-3--^----|-3-2-3-2-1-2-|-3-2-3-4-3-4-o||
||--3-2-3-2-1-2-|-3-2-3-4-3-4~~~--|-3-2-3-2-1-2-|-3-2-3-4-3-4--||
    . . . . . .   . . . . .         . . . . . .   . . . . .

[Riff 4]
||--------------------------------------|-
||o-------------------------------------|-
||--4-4---------4-4---------------------|-
||--3-3---------3-3---------3-3-3-6-6-6-|-
||o-2-2---------2-2---------------------|-
||------3-0-6-0-----3-0-6-0-------------|-
        . . . .     . . . . . . . . . .

-|-------------------------8-7-5---------||
-|-------------------------------10-9---o||
-|-7-7---------7-7-----------------------||
-|-6-6---------6-6-----------------------||
-|-5-5---------5-5----------------------o||
-|-----6-0-9-0-----6-0-9-0---------------||
       . . . .     . . . .

|-------------------------------------|
|-------------------------------------|
|-4-4---------4-4---------------------|
|-3-3---------3-3---------3-3-3-6-6-6-|
|-2-2---------2-2---------------------|
|-----3-0-6-0-----3-0-6-0-------------|
      . . . .     . . . . . . . . . .

|-------------------------8-7-5-------10-9---|
|-------------------------------10-9---------|
|-7-7---------7-7----------------------------|
|-6-6---------6-6----------------------------|
|-5-5---------5-5----------------------------|
|-----6-0-9-0-----6-0-9-0--------------------|
      . . . .     . . . .

|-------------------------------------|
|-------------------------------------|
|-4-4---------4-4---------------------|
|-3-3---------3-3---------3-3-3-6-6-6-|
|-2-2---------2-2---------------------|
|-----3-0-6-0-----3-0-6-0-------------|
      . . . .     . . . . . . . . . .

|---------------------------------|--------|
|---------------------------------|--------|
|-7-7---------7-7-----------------|--------|
|-6-6---------6-6-------7---8-----|--------|
|-5-5---------5-5---8-5---5---6---|--------|
|-----6-0-9-0-----8-------------0-|-5-4----|
      . . . .

[Riff 5]
||--------------------------|-------------------------|
||o-------------------------|-------------------------|
||--------------------------|-------------------------|
||----8---------8---------7-|---8---------8-----------|
||o-6---6-----6---6-----5---|-5---6-----6---6-----8-5-|
||--------1-0-------1-0-----|-------1-0-------1-0-----|


|-------------------------|----------------------------||
|-------------------------|---------------------------o||
|-------------------------|----------------------------||
|-7---8---------8---------|-7---8-------8--------------||
|---5---6-----6---6-----5-|---5---6-------6-----4-----o||
|---------1-0-------1-0---|---------1-0-----1-0-4------||

     [Riff 6 /quickly/]
|---|------------------------|
|---|------------------------|
|---|------------------------|
|---|------------------------|
|---|------------------------|
|---|-2-3---0-2-3-2-1-0--2-3-|
      . .   . . . . . .  . .

|---------------------------|-----------------------|
|---------------------------|-----------------------|
|---------------------------|-----------------------|
|---------------------------|-----------------------|
|---------------------------|-----------------------|
|-0-2-3-2-1-0-3-2-1-0-2-3---|-0-0-0--0-2-3-2-0-2----|
  . . . . . . . . . . . .     . . .  . . . . . .

|-------|---------------------------------|
|-------|---------------------------------|
|-------|---------------------------------|
|-------|---8---------8---------7---8-----|
|-------|-6---6-----6---6-----5---5---6---|
|--2-3--|-------1-0-------1-0-----------1-|
   . .

|---------------------------------|------------------------------|
|---------------------------------|------------------------------|
|---------------------------------|------------------------------|
|-----8-----------7---8---------8-|---------7---8-------8--------|
|---6---6-----8-5---5---6-----6---|-6-----5---5---6-------6------|
|-0-------1-0-------------1-0-----|---1-0-----------1-0-----1-0--|

[Riff 7]
||--------------------------------------|-2-----7-------12-------7------|-
||o-------------------------------------|---4------9-------14-------9---|-
||--------------------------------------|-----0-------------------------|-
||--------------3-3-3-3-3-3-------------|-------------9-------14--------|-
||o-2-2-2-2-2-2-------------5-5-5-5-5-5-|-------------------------------|-
||--------------------------------------|-------------------------------|-
|   . . . . . . . . . . . . . . . . . . | . . . . . . . .  .  .  .  .   |
||--------------------------------------|-4-----9-------14-------9------|-
||o-------------------------------------|---6-----11-------16------11---|-
||--------------------------------------|-----0-------------------------|-
||--------------3-3-3-3-3-3-------------|------------11-------16--------|-
||o-2-2-2-2-2-2-------------5-5-5-5-5-5-|-------------------------------|-
||--------------------------------------|-------------------------------|-
    . . . . . . . . . . . . . . . . . .   . . . . .  .  .  .  .  . .

-|-------------------------------------------------|-
-|-------------------------------------------------|-
-|-------------------------------------------------|-
-|-------------3-3-3-3-3-3-------------------------|-
-|-2-2-2-2-2-2-------------5-5-5-5-5-5-2-2-2-2-2-2-|-
-|-------------------------------------------------|-
 | . . . . . . . . . . . . . . . . . . . . . . . . |
-|-------------------------------------------------|-
-|-------------------------------------------------|-
-|-------------------------------------------------|-
-|-------------3-3-3-3-3-3-------------------------|-
-|-2-2-2-2-2-2-------------5-5-5-5-5-5-2-2-2-2-2-2-|-
-|-------------------------------------------------|-
   . . . . . . . . . . . . . . . . . . . . . . . .

-|-0-----6-----10-----------------||
-|---2-----7------11----11-10----o||
-|-----0----------------------11--||
-|-----------9-------13-----------||
-|-------------------------------o||
-|--------------------------------||
 | . . . . . . .  .  .  .  .  .    |
-|-2-----7-----12-----------------||
-|---3-----9------14----12-------o||
-|-------------------------13-12--||
-|-----5-----9-------14-----------||
-|-------------------------------o||
-|--------------------------------||
   . . . . . . .  .  .  .  .  .

|-2-----7-------12----------------|-0-----6-----10----------------|
|---4------9-------14----12-------|---2-----7------11----11-------|
|-----0---------------------13-12-|-----0-------------------12-13-|
|-------------9-------14----------|-----------9-------13----------|
|---------------------------------|-------------------------------|
|---------------------------------|-------------------------------|
| . . . .  .  .  .  . .  .  .  .  | . . . . . . .  .  .  .  .  .  |
|-4-----9-------14--------9-------|-2-----7-----12----------------|
|---6-----11-------16-------11-10-|---3-----9------14----12-------|
|-----0---------------------------|-------------------------13-14-|
|------------11-------16----------|-----5-----9-------14----------|
|---------------------------------|-------------------------------|
|---------------------------------|-------------------------------|
  . . . . .  .  .  .  .   .  . .    . . . . . . .  .  .  .  .  .

|-2-----7-------12----------------|-0-----6-----10------------|
|---4------9-------14----12-------|---2-----7------11---------|
|-----0---------------------13-12-|-----0---------------------|
|-------------9-------14----------|-----------9-------13------|
|---------------------------------|---------------------------|
|---------------------------------|----------------------14\--|
| . . . . .   . .  .  .  .  .  .  | . . . . . . .  .  .       |
|-4-----9-------14--------9-------|-2-----7-----12------------|
|---6-----11-------16-------11-10-|---3-----9------14---------|
|-----0---------------------------|---------------------------|
|------------11-------16----------|-----5-----9-------14------|
|---------------------------------|---------------------------|
|---------------------------------|----------------------14\--|
  . . . . .  .  .  .  .   .  . .    . . . . . . .  .  .

[Ending riff]
|------------------------|----------------------------|---------------------|
|------------------------|----------------------------|---------------------|
|------------------------|----------------------------|---------------------|
|------------------------|----------------------------|---------------------|
|------------------------|----------------------------|---------------------|
|-2-3---0-2-3-2-1-0--2-3-|--0-2-3-2-1-0-3-2-1-0-2-3---|-0-0-0--0-2-3-2-0-2--|
  . .   . . . . . .  . .    . . . . . . . . . . . .     . . .  . . . . . .

|------------------------|----------------------------|---------------------|
|------------------------|----------------------------|---------------------|
|------------------------|----------------------------|---------------------|
|------------------------|----------------------------|---------------------|
|------------------------|----------------------------|---------------------|
|-2-3---0-2-3-2-1-0--2-3-|--0-2-3-2-1-0-3-2-1-0-2-3---|-0-0-0--0-2-3-2-0-2--|
  . .   . . . . . .  . .    . . . . . . . . . . . .     . . .  . . . . . .

|-----------|
|-----------|
|-----------|
|-----------|
|-----------|
|--2-3------|
   . .

END OF SONG

  Visit MetalTabs.com for more metal tablature