top separator

Home

Forum

What's New

Submit a Tab

FAQ

Links

Contact Us

Link to Us

MuSpy.com

MetalTabs.com logo

Bands

0-9

A

B

C

D

E

F

G

H

I

J

K

L

M

N

O

P

Q

R

S

T

U

V

W

X

Y

Z

Search

What

Where
 

Agalloch - "...And The Great Cold Death Of The Earth" Guitar Tab

Plain Text Version
More Agalloch Tabs

Hits: 6990
Rated: 3.40 out of 5 (5 votes)
Updated: 2005-07-21 16:47:21

 

By:

Kalmahswamp

sendpm.gif

email.gif

Important note
This tab is available online because we obtained explicit permission from Agalloch or their label.


#----------------------------------PLEASE NOTE---------------------------------#
#This file is the author's own work and represents their interpretation of the #
#song. You may only use this file for private study, scholarship, or research. #
#Unless specified otherwise, this is NOT an official tab from the band members.#
#------------------------------------------------------------------------------#

  Visit MetalTabs.com for more metal tablature
  
Band:  Agalloch
Album: The Mantle
Song:  ...and the Great Cold Death of the Earth

Copyright (c)  The End Records 2002

Transcribed By: Paul Sullivan
Email:          kalmahswamp@yahoo.com

(#)- Strum Lightly
[#]- Ghost Note
h- Hammer on
/- slide up
\- slide down
p- pull off
{#}- Natural Harmonic (play these natural harmonics by fingering the 2nd fret on
E, 3rd on B, and 4th on G: then use your index finger to finger the harmonic at
the top frets while picking with your thumb)

Tuning E A D G B E

Part 1
E--------------------------------------------------------------------------
B--------------------------------------------------------------------------
G-------------------------------------5-(5)-(5)-(5)-(5)-5-(5)-(5)-(5)-(5)--
D-7-(7)-(7)-(7)-(7)-7-(7)-(7)-(7)-(7)-5-(5)-(5)-(5)-(5)-5-(5)-(5)-(5)-(5)--
A-7-(7)-(7)-(7)-(7)-7-(7)-(7)-(7)-(7)-3-(3)-(3)-(3)-(3)-3-(3)-(3)-(3)-(3)--
E-5-(5)-(5)-(5)-(5)-5-(5)-(5)-(5)-(5)--------------------------------------

E-------------------------------------------------------------------|
B-6-(6)-(6)-(6)-(6)-6-5-5-5-5---------------------------------------|
G-5-(5)-(5)-(5)-(5)-5-5-5-5-5---------------------------------------|
D-3-(3)-(3)-(3)-(3)-3-3-3-3-3-7-(7)-(7)-(7)-(7)---------------------|
A[0]---------------[0]--------7-(7)-(7)-(7)-(7)---------------------|
E-----------------------------5-(5)-(5)-(5)-(5)---------------------|

Deep "bassy" part
E------------------------------------------|
B------------------------------------------|
G------------------------------------------|
D------------------------------------------|
A------------------------------------------|
E-0-[0]--2-3-[3]--8-[8]-7-[7]--0-----------|

Part 2 (1:02)

E--------------------------------------------|
B--------------------------------------------|
G-5-(5)-(5)-(5)-(5)--------------------------|
D-5-(5)-(5)-(5)-(5)-7-(7)-(7)-(7)-(7)--------|
A-3-(3)-(3)-(3)-(3)-7-(7)-(7)-(7)-(7)--------|
E-------------------5-(5)-(5)-(5)-(5)--------|

PART 1 with Electric Lead

E-----------------------------------|-----------------------|--------------|
B-----------------------------------|-----------------------|----------8---|
G-----------------------------------|-----------------------|------------7-|
D---4---4-4h5-10-10-9-7----7-9-10---|-10-10-9-7----7-10-9-7-|-10-10-10-----|
A-2---5-------10--------10----------|-10--------10-7-10-9-7-|-10-10-10-----|
E-0-----------8---------------------|-8------------5-8--7-5-|-8--8--8------|

SOLO (with part 1 chords and Electric Lead)

E-----------------------------------------10----------------------10-------
B--------------------------------------10----13p10-10/12-12-12-12----12-12-
G-9-11----11-12-11\9-9-9/11-11-9-11-12-------------------------------------
D------12------------------------------------------------------------------
A--------------------------------------------------------------------------
E--------------------------------------------------------------------------

E---------14-14---------------------------12----------------------------------
B-------15------15----------------------12---13-------------------------------
G-----14-----------16-----------------14--------14----------11-12-------7-----
D---16----------------17------------14-------------15-12-14-------10------7---
A-17---------------------17-15-14-12---------------------------------12-----7-
E-----------------------------------------------------------------------------

E--------------------------------------------------------10/12-12\7-8-10-10-
B-------------------------------------------------9h12p9--------------------
G-3-----4-----------------------------------7h9p7---------------------------
D---1-----4---7-----------------------7h9p7---------------------------------
A-----3-----4---5-3-------------5h7p5---------------------------------------
E-------------------5-5/7-5h7p5---------------------------------------------

E-12-15-12-------------------------------------------------------------{14)-----
B----------13-17-15-12-15-13-10-13-12-8-12-10-7-10-8-5-3-5-----{15}--------{15}-
G----------------------------------------------------------{16}----{16}---------
D-------------------------------------------------------------------------------
A-------------------------------------------------------------------------------
E-------------------------------------------------------------------------------

E----------14----14-15-12-14----12-------------------------------------------
B----15-------15-------------15----13-15-12-13----12----------12-12h13p12----
G-16----16-------------------------------------14----12-12h14----------------
D-------------------------------------------------------------------------14-
A----------------------------------------------------------------------------
E----------------------------------------------------------------------------

E------------------------------------------------------------------------|
B-------12-13-12h13-12----12-13----------12-13-12h13---------13-12-------|
G-12-14----------------14----------12-14---------------------------12----|
D-------------------------------14------------------------------------14-|
A------------------------------------------------------------------------|
E------------------------------------------------------------------------|

Bassy part:

E-------------------------------|
B-------------------------------|
G-------------------------------|
D-------------------------------|
A-------------------------------|
E-0--7--8--3--12--7--8--15------|

Bass Chord:

E---|
B-0-|
G-2-|
D-2-|
A-0-|
E---|

PART 1

PART 2 (With electric lead from Part 1)

RESOLUTION: (Strum chords accordingly)

E--------------------|
B--------------------|
G-0------------------|
D-2--7--10-12-9------|
A-2--7--10-10-10-----|
E-0--5--8--8--8------|

Fade Out.

  Visit MetalTabs.com for more metal tablature

bottom separator

Contact Us | Privacy Policy | Disclaimer | Legal Notice
Copyright © 2001-2014 MetalTabs.com. All Rights Reserved.