top separator

Home

Forum

FAQ

Contact Us

Link to Us

MetalTabs.com logo

Bands

0-9

A

B

C

D

E

F

G

H

I

J

K

L

M

N

O

P

Q

R

S

T

U

V

W

X

Y

Z

Liturgy - "Shrine of Moria" Guitar Tab

Plain Text Version
More Liturgy Tabs

Hits: 3660
Rated: 5.00 out of 5 (1 vote)
Updated: 2005-07-21 16:45:26

By:

Yura


#----------------------------------PLEASE NOTE---------------------------------#
#This file is the author's own work and represents their interpretation of the #
#song. You may only use this file for private study, scholarship, or research. #
#Unless specified otherwise, this is NOT an official tab from the band members.#
#------------------------------------------------------------------------------#

  Visit MetalTabs.com for more metal tablature
  
--- LITURGY ---
                              "Shrine Of Moria"
                     From album: "Dawn Of Ash"
                     Copyright Unmatched Brutality 2004 
                     Version 1.0 (April 2005)
                     Transcribed by: Yura Kowalchuk
                     Contact:[yura@grindcore.net]
                             [yura_kowalchuk@mail.ru]
                     HOME PAGE:http://www.blood-scrapes.nm.ru

                            TABULATURE LEGEND:
                   " - tremolo             h - hammer on
                   ~ - vibrato             \ - slide down
                   p - pull off            / - slide down
                  tr - tremolo picking     ^ - pinch harmonics
                   = - sustained note      b - bend string
                p.m. - palm muting         t - tapping

TUNING: Mike Bailey use 7 string guitar with standart tuning
(lowest string is B)

Very fast!!!!

[Riff 1 (x2)]
||------------------------------------------------------------------|-
||o-----------------------------------------------------------------|-
||------------------------------------------------------------------|-
||------------------------------------------------------------------|-
||o---------8/9---------8/9-7/9-7/8---------8/9---------8/9-----7/8-|-
||--3-3-3-3-6/7-3-3-3-3-6/7-5/7-5/6-3-3-3-3-6/7-3-3-3-3-6/7-3-3-5/6-|-
    . . . .     . . . .             . . . .     . . . .     . .

-|-----------------------------------------------------------||
-|----------------------------------------------------------o||
-|-----------------------------------------------------------||
-|-----------------------------------------------------------||
-|---------8/9---------8/9-7/9-7/8--------------------------o||
-|-3-3-3-3-6/7-3-3-3-3-6/7-5/7-5/6-2"-3"-2"-0"-2"-3"-0"-0-0--||
   . . . .     . . . .

[Riff 2 (x4)]
||----------------------------------------------------||
||o--------------------------------------------------o||
||----------------------------------------------------||
||----------------------------------------------------||
||o-------3"-------3"--------------3"-------3"----2"-o||
||--2"...----2"...----2h3h5--2"...----2"...----1"-----||


[Riff 3 (x2)] /quick!!!/
||---|----------------------------[x3]-|-------------------------------------
||o--|---------------------------------|-------------------------------------
||---|---------------------------------|-------------------------------------
||---|---------------------------------|-------------------------------------
||o--|---------------------------------|-------------------------------------
||---|-0-2-0-2-0-2-0-3-0-2-0-2-0-1-0-1-|-0-2-0-2-0-2-0-3-0-2-0-2-0-1-0-1-0-1-
       . . . . . . . . . . . . . . . .   . . . . . . . . . . . . . . . . . .

-----------------------------||
----------------------------o||
------------------------4/7--||
------------------44-55-2/5--||
-666677776666-----22-33-----o||
-------------5555------------||
                  .. ..

      [Outro]
   --|----------------------------[x3]-|-------------------------------------
   --|---------------------------------|-------------------------------------
   --|---------------------------------|-------------------------------------
   --|---------------------------------|-------------------------------------
   --|---------------------------------|-------------------------------------
   --|-0-2-0-2-0-2-0-3-0-2-0-2-0-1-0-1-|-0-2-0-2-0-2-0-3-0-2-0-2-0-1-0-1-0-1-
       . . . . . . . . . . . . . . . .   . . . . . . . . . . . . . . . . . .

[Riff 4a (x4)]               [Outro 2]
||----------------------||  ---------------------------------------------|
||o--------------------o||  ---------------------------------------------|
||----------------------||  ----------------------------------------4/7--|
||------------------^---||  --------------^-------------------44-55-2/5--|
||o-4-3-3-4-3-3-----2~-o||  -4-3-3--4-3-3-2~-666677776666-----22-33------|
||--2-1-1-2-1-1-111-----||  -2-1-1--2-1-1----------------5555------------|
    . . . . . . ...          . . .  . . .                     .. ..

[RIFF 1 (x2)] [RIFF 2 (x4)]

[Riff 5 (x8)]
||-----------------------------------||
||o---------------------------------o||
||-----------------------------------||
||-----------------------------------||
||o-------------------------2-------o||
||--1-0-1-0-1-0-2-0-1-0-1-0---5-3-5--||
    . . . . . . . . . . . . . . . .

                    [Riff 6 (x4)]
|-----------------||----------------------------------------------------||
|-----------------||o--------------------------------------------------o||
|-----------------||----------------------------------------------------||
|-----4-------4---||----------------------------------------------------||
|-2/3-2-3-2/3-2-3-||o--------------2"....--------------------2"--------o||
|-0/1---1-0/1---1-||--1"-0"....-1"--------1h4p1-1"-0"....-1"----1"....--||

[RIFF 6 /palm muted tremolo/ (x4)] [OUTRO 2] [RIFF 3] [Outro]

[Riff 4b (x4)]
||-------------------||
||o-----------------o||
||-------------------||
||-------------------||
||o-4-3-3-4-3-3-3/9-o||
||--2-1-1-2-1-1-1/7--||
    . . . . . .

     [Ending]
  --|-------------[x7]-|-----------
  --|------------------|-----------
  --|------------------|-----------
  --|--------------^---|-----------
  --|-4-3-3--4-3-3-2~~-|-4-3-3-----
  --|-2-1-1--2-1-1-----|-2-1-1-----
      . . .  . . .       . . .

END OF SONG

  Visit MetalTabs.com for more metal tablature

bottom separator

Contact Us | Privacy Policy | Disclaimer
Copyright © 2001-2014 MetalTabs.com. All Rights Reserved.