top separator

Home

Forum

What's New

Submit a Tab

FAQ

Links

Contact Us

Link to Us

MetalTabs.com logo

Bands

0-9

A

B

C

D

E

F

G

H

I

J

K

L

M

N

O

P

Q

R

S

T

U

V

W

X

Y

Z

Search

What

Where
 

Yattering - "The Art Of The 20th Century" Guitar Tab

Plain Text Version
More Yattering Tabs

Hits: 2031
Rated: 3.25 out of 5 (8 votes)
Updated: 2005-07-21 16:41:19

 

By:

Transient

sendpm.gif

email.gif

Important note
This tab is available online because we obtained explicit permission from Yattering or their label.


#----------------------------------PLEASE NOTE---------------------------------#
#This file is the author's own work and represents their interpretation of the #
#song. You may only use this file for private study, scholarship, or research. #
#Unless specified otherwise, this is NOT an official tab from the band members.#
#------------------------------------------------------------------------------#

  Visit MetalTabs.com for more metal tablature
  
Band:Yattering
Album: Murder's Concept
Song:  The Art of the 20th Century

Copyright (c)  Relapse 1999
Version 1.0 - June 28,2005

Transcribed By: Sam B (Transient)
Email:  transientblur@netscape.net

Tuning : Whole Step Down ( DGCFAD )
NH - Natural Harmonic
.  - palm mute           /  - slide up to
\  - slide down to       ~  - vibrato
h  - hammer on           b  - Bend
p  - pull off            Suffixes for bend
t  - tap                 f  - full bend    h - half bend
A.H. - pinched harmonic    q  - quarter bend t - tap bend
*  - see comment         ^  - Hold bend    r release bend
x  - Stuccatto           ~  - vibrato bend
,  - slight palm mute    () - ghost note, sustained note
"  - tremolo note        <> - Trill


Comments: There is sure to be some confusion regarding what
song this actually is. This is TRACK 2 of the Murder's Concept cd.
However, the song title is given as "The Murderer" which is incorrect.
On the live album this song is introduced correctly as "The Art of the 20th
Century". So, sorry for the inconvenience regarding this song's title. The song
is about 4 minutes long, and tons of really odd riffs. Good old Yattering.

MetalThrashingMad recently did an accurate tab under the
song title "The Art of .." however his was a tab of the song "Anal Narcotic".
 Hopefully all this song title
garbage hasn't lessened
your interest in Yattering. I hope you like this tab, contact me on
AIM or email me with any questions or comments. Aim Screename : TransientBlur

Intro
|---------------------|
|---------------------|
|---------------------|
|---------------------|
|3-2-3----------------|
|1-0-1--00000000------|

Fill 1
|---------------------|
|---------------------|
|---------------------|
|------------------2--|
|--432-321---------2--|
|----------765-654-0--|

Verse Riffs
|-----------------------------------------------|
|-----------------------------------------------|
|-----------------------------------------------|
|-------------4444------------3h446-------4h5h7-|
|-------3333-------3333-3h4h6-------4h5h7-------|
|--2222-----------------------------------------|

|---------------------------------------|
|---------------------------------------|
|---------------------------------------|
|------------4444-----------------------|
|-------3333-----3333-------------------|
|--2222----------------876-765-654-543--|

Fill 2
|------------------------|
|------------------------|
|------------------------|
|-------------------2----|
|---10--9-8-----8-7-2----|
|---8---7-6-000-6-5-0----|

Harmonic Riff
 N.H.     N.H.     N.H.
|-------------------------------|
|-------------------------------|
|-------------------------------|
|-------------------------------|
|-7--------7--------7-----------|
|---000000---000000---000000----|

|-------------------|
|-------------------|
|-------------------|
|---------4h5-------|
|-----5h6-----5h6---|
|-5h6---------------|

Fill 3
|--------------|
|--------------|
|--------------|
|-2-22-22-2-2--|
|-2-22-22-2-2--|
|-0-00-00-0-0--|

Chord Hammeron riff
|-------------|
|-------------|
|-------------|
|--7----------|
|--5----------|
|0---3h4-3h4--|

Chromatic Riffs
|-----------------------|
|-----------------------|
|-----------------------|
|-----------------------|
|------------------8-5--|
|--765-654-765-654-6-5--|

|----------------------------------------|
|----------------------------------------|
|----------------------------------------|
|----------------------------------------|
|------6666-----5555-----5555--8-7-------|
|--765------654------765-------6-5-------|

|----------------------------------------|
|----------------------------------------|
|-----------22221111-----------11110000--|
|----------------------------------------|
|--44443333-----------33332222-----------|
|----------------------------------------|

This is played with a gallop triplet, and the third pick strike slides
down to the 1-3 power chord and then pulls off to an open D
|-----------------------------------|
|-----------------------------------|
|-----------------------------------|
|-----------------------------------|
|-44\3---44-3---44-3---44-3---------|
|-22\1-0-22\1-0-22\1-0-22\1-0-------|

Fill 4
|-------------------------------------|
|-------------------------------------|
|-------------------------------------|
|--------------------------------5----|
|--------------------------------5----|
|-11111111111111111111111111-----3----|

Verse Riffthen

Breakdown Riff
|---------------------------------------------|
|---------------------------------------------|
|---------------------------------------------|
|--------7-6-7--4-6----------7-6-7------------|
|-2----4-5-4-5--2-4---2----4-5-4-5--999-8-7-2-|
|-0-00-2--------------0-00-2--------777-6-5-0-|

Breakdown 2
|-----------------------------|
|-----------------------------|
|-----------------------------|
|-----------------------------|
|-2--22-22-22--2-4-3-2-3~-----|
|-0--00-00-00--0-2-1-0-1~-----|

|--------------------------|
|--------------------------|
|--------------------------|
|--------------------5/7---|
|-2-22-22-22-2-4-3-2-3/5---|
|-0-00-00-00-0-2-1-0-------|

Alt Picking Riff
       A.H.
|-----------------------------------|
|-----------------------------------|
|-----------------------------------|
|-3-----2-----3---------------------|
|----------------8-7-6-8-7-6-8-7----|
|---000---000----6-5-4-6-5-4-6-5----|


Song Structure
Intro Riff 16x
Fill 1 (0:45)

Verse Riff 2x (0:57)
Fill 2
Harmonic riff 6x
Harmonic Riff Fill 1x
Continue Under Solo

Fill 3 (1:21)

Chord Hammer On Riff 12x (1:32)

Chromatic Riffs (1:55)
Fill 4
Verse Riff 2x (2:12)

Solo Over
Breakdown Riff 1 8x (2:33)
Breakdown Riff 2 3x

Alt Picking Riff 4x to (2:56)

Chord Hammer on Riff 12x
Chromatic Riffs
Fill 4

Intro Riff

Verse Riff 2x (4:00)

  Visit MetalTabs.com for more metal tablature

bottom separator

Contact Us | Privacy Policy | Disclaimer | Legal Notice
Copyright © 2001-2014 MetalTabs.com. All Rights Reserved.