top separator

Home

Forum

What's New

Submit a Tab

FAQ

Links

Contact Us

Link to Us

MetalTabs.com logo

Bands

0-9

A

B

C

D

E

F

G

H

I

J

K

L

M

N

O

P

Q

R

S

T

U

V

W

X

Y

Z

Search

What

Where
 

Thronar - "To Kill and be King" Guitar Tab

Plain Text Version
More Thronar Tabs

Hits: 2810
Rated: 3.00 out of 5 (1 vote)
Updated: 2005-07-21 16:38:46

 

By:

Theoldman

sendpm.gif

email.gif

Important note
This tab is available online because we obtained explicit permission from Thronar or their label.


#----------------------------------PLEASE NOTE---------------------------------#
#This file is the author's own work and represents their interpretation of the #
#song. You may only use this file for private study, scholarship, or research. #
#Unless specified otherwise, this is NOT an official tab from the band members.#
#------------------------------------------------------------------------------#

  Visit MetalTabs.com for more metal tablature
  
Band:  Thronar
Album: For Death And Glory
Song:  To Kill And Be King

Copyright (c)  (RECORD LABEL) 2005
Version 1.0 -  28.6.2005

Transcribed By: theoldman
Email:          swordbearing@hotmail.com
________________________________________

.  - palm mute           /  - slide up to
\  - slide down to       ~  - vibrato
h  - hammer on           b  - Bend
p  - pull off            Suffixes for bend
t  - tap                 f  - full bend    h - half bend
ph - pinched harmonic    q  - quarter bend t - tap bend
*  - see comment         ^  - Hold bend    r release bend
x  - Stuccatto           ~  - vibrato bend
,  - slight palm mute    () - ghost note, sustained note
"  - tremolo note        <> - Trill

Tuning D G C F A D

Riff 1 (0:04-0:10)
|------------------------------------------------------------------------|
|------------------------------------------------------------------------|
|------------------------------------------------------------------------|
|------------------------------------------------------------------------|
|2-------2-------2-----5---7---5-2---5---2-------2-------2-----5---7---5-|
|0-0000000-0000000-00003-005-003-0-0-3---0-0000000-0000000-00003-005-003-|
 . ....... ....... ....  ..  ..  . .     . ....... ....... ....  ..  ..



Riff 2 (0:11-0:38)
|----------------------------------------------------------------|
|----------------------------------------------------------------|
|----------------------------------------------------------------|
|----------------------------------------------------------------|
|2-------2-------2-----5---7---5-2-------2-------2-----5---7---5-|
|0-0000000-0000000-00003-005-003-0-0000000-0000000-00003-005-003-|
 . ....... ....... ....  ..  ..  . ....... ....... ....  ..  ..
|----------------------------------------------------------------|
|----------------------------------------------------------------|
|----------------------------------------------------------------|
|----------------------------------------------------------------|
|2-------2-------2-----5---7---5-7-------5-----5-2-------5---4---|
|0-0000000-0000000-00003-005-003-5-5555553-33333-0-0000003---2---|
 . ....... ....... ....  ..  ..    ......  ....    ......



Riff 3 (0:39-0:51)
|-------------------------------------------------------------------|
|-------------------------------------------------------------------|
|-------------------------------------------------------------------|
|-------7------5---------------------7------5-----------------------|
|5------5------3------5---7---5------5------3------5-------5--------|
|3--------------------3---5---3--------------------3-3333333-333333-|
                                                     ......  ......


Riff 2 (0:52-1:05)

Riff 3 (1:06-1:18)



Riff 4 (1:19-1:22)
|----------------|
|----------------|
|----------------|
|----------------|
|--------7--5--4-|
|333333335--3--2-|
 ........



Riff 5 (1:23-1:37)
|----------------------------------------------------------------------|
|----------------------------------------------------------------------|
|----------------------------------------------------------------------|
|----------------------------------------------------------------------|
|2222222222222222-3333333333333333-000000-555555-0000-2222222222222222-|
|----------------------------------------------------------------------|

|----------------------------------------------------------------------|
|----------------------------------------------------------------------|
|----------------------------------------------------------------------|
|----------------------------------------------------------------------|
|2222222222222222-333333333333333-555555-333333-5555-77777777777777777-|
|----------------------------------------------------------------------|



Riff 6 (1:35-1:41)
|----------------|
|----------------|
|----------------|
|----------------|
|2-----5---2-7---|
|0-----3---0-5---|



Riff 5 (1:42-1:55)

Riff 6 (1:53-1:59)



Riff 7 (2:00-2:05)
|----------------|
|----------------|
|----------------|
|----------------|
|------5-----7---|
|0000003-----5---|
 ......



Riff 8 (2:07-2:33)
|------------------------------------------------------------|
|------------------------------------------------------------|
|------------------------------------------------------------|
|------------------------------------------------------------|
|2------5------5------7------2------5----------5------7------|
|0------3------3------5------0------3------3-3-3------5------|
                                           . .


Solo 1 (2:35-3:00)
|----------------------------------------------------------------|
|----------------------------------------------------------------|
|--4-2-0---4-2-0---4-2-0---4-2-0---0-2-4---0-2-4---0-2-4---0-2-4-|
|2-------2-------2-------2-------2-------2-------2-------2-------|
|----------------------------------------------------------------|
|----------------------------------------------------------------|

|----------------------------------------------------------------|
|----------------------------------------------------------------|
|--4-2-0---4-2-0---4-2-0---4-2-0-2-------------------------------|
|2-------2-------2-------2---------------------------------------|
|----------------------------------------------------------------|
|----------------------------------------------------------------|



Riff 9 (3:00-3:01)
|------------|
|------------|
|------------|
|------------|
|9---5---4---|
|7---3---2---|



Riff 2 (3:02-3:15)

Riff 3 (3:16-3:29)

Riff 4 (3:30-3:32)



Solo 2 (3:33-3:59)
|--------------------------------------------------------------|
|----------------------5-3-------------------------------------|
|----4-2-4-2-0-------4--------------4-2-4-2-0------------------|
|2-2-----------4-2-2------------2-2-----------4-0---4---2------|
|--------------------------------------------------------------|
|--------------------------------------------------------------|



Riff 5 (4:00-4:14)

Riff 6 (4:12-4:18)

Riff 5 (4:19-4:32)

Riff 6 (4:31-4:37)

Solo 2 (4:38-4:50)



Riff 10 (4:51-5:00)
|------------------------------------------|
|------------------------------------------|
|------------------------------------------|
|------------------------------------------|
|5------7------2------4------5------7------|
|3------5------0------2------3------5------|



Riff 8 (5:01-5:27)

Solo 1 (5:29-5:54)



Riff 11 (5:55-6:08)
|---------------------------------------------|
|---------------------------------------------|
|---------------------------------------------|
|---------------------------------------------|
|2------2--2--2-2------5------5--5--5-5-------|
|0------0--0--0-0------3------3--3--3-3-------|
        .  .  . .             .  .  . .
|---------------------------------------------|
|---------------------------------------------|
|---------------------------------------------|
|---------------------------------------------|
|5------5--5--5-5------7------7--7--7-7-------|
|3------3--3--3-3------5------5--5--5-5-------|
        .  .  . .             .  .  . .


Riff 12 (6:09-6:32)
|------------------------------------------------------------|
|------------------------------------------------------------|
|------------------------------------------------------------|
|------------------------------------------------------------|
|5------5--5--5-7------7--7--7-9------9--9--9-7------7--7--7-|
|3------3--3--3-5------5--5--5-7------7--7--7-5------5--5--5-|
        .  .  .        .  .  .        .  .  .        .  .  .
|------------------------------------------------------------|
|------------------------------------------------------------|
|------------------------------------------------------------|
|---------------7---5---4------------------------------------|
|5------5--5--5-5---3---2---2--------------------------------|
|3------3--3--3-------------0--------------------------------|
        .  .  .


END

  Visit MetalTabs.com for more metal tablature

bottom separator

Contact Us | Privacy Policy | Disclaimer | Legal Notice
Copyright © 2001-2014 MetalTabs.com. All Rights Reserved.