top separator

Home

Forum

What's New

Submit a Tab

FAQ

Links

Contact Us

Link to Us

MetalTabs.com logo

Bands

0-9

A

B

C

D

E

F

G

H

I

J

K

L

M

N

O

P

Q

R

S

T

U

V

W

X

Y

Z

Search

What

Where
 

Lykathé - "Shine of Consolation" Guitar Tab

Plain Text Version
More Lykathé Tabs

Hits: 3180
Updated: 2005-07-21 16:35:12

 

By:

Cloaca

sendpm.gif

email.gif

Important note
We did our best to reach Lykathé and ask for their permission to publish this tab. Unfortunately they did not respond to our requests or we could not find a way to contact them. This tab is available online until Lykathé tells us to take it down.


#----------------------------------PLEASE NOTE---------------------------------#
#This file is the author's own work and represents their interpretation of the #
#song. You may only use this file for private study, scholarship, or research. #
#Unless specified otherwise, this is NOT an official tab from the band members.#
#------------------------------------------------------------------------------#

  Visit MetalTabs.com for more metal tablature
  
Lykathea Aflame - 'Shine Of Consolation'
Elvenefris (2000)
Obscene Productions

Tabbed by Tim Snowsill (Tim_Snowsill@hotmail.com)
28/06/05

________________________________________________________________________________
Tab Rhythm is hardly perfect so listen to CD. Any comments or corrections can be
e-mailed to above address.

________________________________________________________________________________

Words and Music by Ptoe
Arranged by Lykathea Aflame
Transcribed by Tim Snowsill

Gtr I (Db Gb B E Ab Db) - 'Ptoe'
Gtr II (Db Gb B E Ab Db) - 'Ondra Martinek'
Gtr III (Db Gb B E Ab Db) - 'Acoustic Guitar'
Gtr IV (Db Gb B E Ab Db) - 'Keyboards'

 Riff 1 (0:00)
  Q=260
 4/4
  Gtr I
                                PM            PM-------|
  W             H       Q  Q    E Q.   H      Q  Q  Q  Q
|-------------|---------------|-------------|--------------|
|-------------|---------------|-------------|--------------|
|-------------|---------------|---9----9----|--------------|
|-------------|---------------|---7----7----|--------------|
|-------------|---------------|---7----7----|-4--5--4--2---|
|-------------|--------11--7--|-0-----------|-2--3--2--0---|
|
| Gtr II
| PM            PM              PM            PM-------|
| E Q.   H      E Q.    Q  Q    E Q.   H      Q  Q  Q  Q
|-------------|---------------|-------------|--------------|
|-------------|---------------|-------------|--------------|
|-------------|---------------|-------------|--------------|
|-------------|---------------|-------------|--------------|
|---7----7----|---7----10--6--|---7----7----|-4--2--4--5---|
|-0-9----9----|-0-9-----------|-0-9----9----|-2--0--2--3---|


    Gtr I
    PM            PM              PM            PM---------------------|
    E Q.   H      E Q.    Q  Q    E Q.   H      Q  Q  Q  Q    Q  Q  Q  Q
||--------------|---------------|-------------|-------------|---------------|
||o-------------|---------------|-------------|-------------|---------------|
||----9----9----|---9-----------|---9----9----|-------------|---------------|
||----7----7----|---7-----------|---7----7----|-------------|---------------|
||o---7----7----|---7-----------|---7----7----|-4--5--4--2--|-4--5--4--2----|
||--0-----------|-0------11--7--|-0-----------|-2--3--2--0--|-2--3--2--0----|
|
|   Gtr II
|   PM            PM              PM            PM---------------------|
|   E Q.   H      E Q.    Q  Q    E Q.   H      Q  Q  Q  Q    Q  Q  Q  Q
||--------------|---------------|-------------|-------------|---------------|
||o-------------|---------------|-------------|-------------|---------------|
||--------------|---------------|-------------|-------------|---------------|
||--------------|---------------|-------------|-------------|---------------|
||o---7----7----|---7----10--6--|---7----7----|-4--2--4--5--|-4--2--4--5----|
||--0-9----9----|-0-9-----------|-0-9----9----|-2--0--2--3--|-2--0--2--3----|


  1.
  Gtr I
  PM                            PM            PM-------|
  E Q.   H      E Q.    Q  Q    E Q.   H      Q  Q  Q  Q
|-------------|---------------|-------------|--------------||
|-------------|---------------|-------------|-------------o||
|---9----9----|---9-----------|---9----9----|--------------||
|---7----7----|---7-----------|---7----7----|--------------||
|---7----7----|---7-----------|---7----7----|-4--5--4--2--o||
|-0-----------|-0------11--7--|-0-----------|-2--3--2--0---||
|
| Gtr II
| PM            PM              PM            PM-------|
| E Q.   H      E Q.    Q  Q    E Q.   H      Q  Q  Q  Q
|-------------|---------------|-------------|--------------||
|-------------|---------------|-------------|-------------o||
|-------------|---------------|-------------|--------------||
|-------------|---------------|-------------|--------------||
|---7----7----|---7----10--6--|---7----7----|-4--2--4--5--o||
|-0-9----9----|-0-9-----------|-0-9----9----|-2--0--2--3---||


   Riff 2 (0:16)
    2.
    Gtr I
    S S S S S S S S S S S S S S S S   S S S S S S S S S S S S S S S S   4x
||----------------------------------|-----------------------------------||
||o---------------------------------|----------------------------------o||
||----------------------------------|-----------------------------------||
||------------------7-7-7-7---------|-----------------4-4-4-4-4-4-4-4---||
||o-5-5-5-5-5-5-5-5-----------------|----------------------------------o||
||--------------------------6-6-6-6-|-7-7-7-7-7-7-7-7-------------------||
|
|   Gtr II
|   S S S S S S S S S S S S S S S S   S S S S S S S S S S S S S S S S   4x
||----------------------------------|-----------------------------------||
||o---------------------------------|----------------------------------o||
||----------------------------------|-----------------------------------||
||----------------------------------|-----------------------------------||
||o-----------------5-5-5-5---------|-----------------5-5-5-5-5-5-5-5--o||
||--3-3-3-3-3-3-3-3---------6-6-6-6-|-7-7-7-7-7-7-7-7-------------------||


  Gtr I
                PM-------|
  Q  Q  Q  Q    Q  Q  Q  Q
|-------------|-------------|
|-------------|-------------|
|----9--9--9--|-------------|
|----7--7--7--|-------------|
|----7--7--7--|-4--5--4--2--|
|-0-----------|-2--3--2--0--|
|
| Gtr II
|               PM-------|
| W             Q  Q  Q  Q
|-------------|-------------|
|-------------|-------------|
|-------------|-------------|
|-------------|-------------|
|-------------|-4--2--4--5--|
|-------------|-2--0--2--3--|


    Gtr I
    S S S S S S S S S S S S S S S S   S S S S S S S S S S S S S S S S   4x
||----------------------------------|-----------------------------------||
||o---------------------------------|----------------------------------o||
||----------------------------------|-----------------------------------||
||------------------7-7-7-7---------|-----------------4-4-4-4-4-4-4-4---||
||o-5-5-5-5-5-5-5-5-----------------|----------------------------------o||
||--------------------------6-6-6-6-|-7-7-7-7-7-7-7-7-------------------||
|
|   Gtr II
|   S S S S S S S S S S S S S S S S   S S S S S S S S S S S S S S S S   4x
||----------------------------------|-----------------------------------||
||o---------------------------------|----------------------------------o||
||----------------------------------|-----------------------------------||
||----------------------------------|-----------------------------------||
||o-----------------5-5-5-5---------|-----------------5-5-5-5-5-5-5-5--o||
||--3-3-3-3-3-3-3-3---------6-6-6-6-|-7-7-7-7-7-7-7-7-------------------||


 Riff 3 (0:32)
  Q=240
  Gtr III
  Q  Q  Q  Q     Q   Q  Q  Q     Q   Q  Q  Q     Q   Q  Q  Q
|-------------|---------------|---------------|---------------|
|-------0-----|---------0-----|---------0-----|---------0-----|
|----0-----0--|------0-----0--|------4-----0--|------4-----0--|
|-2-----------|--2------------|--4------------|--4------------|
|-------------|---------------|---------------|---------------|
|-------------|---------------|---------------|---------------|
|
| Gtr IV
| W             +W              +W              +W
|-------------|---------------|---------------|---------------|
|-5-----------|-(5)-----------|-(5)-----------|-(5)-----------|
|-------------|---------------|---------------|---------------|
|-2-----------|-(2)-----------|-(2)-----------|-(2)-----------|
|-------------|---------------|---------------|---------------|
|-------------|---------------|---------------|---------------|


  Gtr III
  Q  Q  Q  Q     Q   Q  Q  Q     Q   Q  Q  Q     Q   Q  Q  Q
|-------------|---------------|---------------|---------------|
|-------0-----|---------0-----|---------0-----|---------0-----|
|----4-----0--|------4-----0--|------5-----0--|------5-----0--|
|-5-----------|--2------------|--7------------|--4------------|
|-------------|---------------|---------------|---------------|
|-------------|---------------|---------------|---------------|
|
| Gtr IV
| W             +W              +W              +W
|-------------|---------------|---------------|---------------|
|-5-----------|-(5)-----------|-(5)-----------|-(5)-----------|
|-------------|---------------|---------------|---------------|
|-2-----------|-(2)-----------|-(2)-----------|-(2)-----------|
|-------------|---------------|---------------|---------------|
|-------------|---------------|---------------|---------------|


  Gtrs I, II
    PM--------|               PM------|
  E S S S S S S E Q.       E  S S S S S S E Q.
|-----------------------|-------------------------|
|-----------------------|-------------------------|
|-4-------------5-------|--4--------------5-------|
|---2-2-2-2-2-2---------|-----2-2-2-2-2-2---------|
|-----------------------|-------------------------|
|-----------------------|-------------------------|
|
| Gtr III
| Q     Q       Q    Q     Q      Q       Q    Q
|-----------------------|-------------------------|
|---------------0-------|-----------------0-------|
|-------0------------0--|---------0------------0--|
|-2---------------------|--2----------------------|
|-----------------------|-------------------------|
|-----------------------|-------------------------|
|
| Gtr IV
| W                       +W
|-----------------------|-------------------------|
|-5---------------------|-(5)---------------------|
|-----------------------|-------------------------|
|-2---------------------|-(2)---------------------|
|-----------------------|-------------------------|
|-----------------------|-------------------------|


      PM--------|               PM--------|
   E  S S S S S S E Q.       E  S S S S S S E Q.
|-------------------------|-------------------------|
|-------------------------|-------------------------|
|--4--------------5-------|--4--------------5-------|
|-----1-1-1-1-1-1---------|-----1-1-1-1-1-1---------|
|-------------------------|-------------------------|
|-------------------------|-------------------------|
|
|  Q      Q       Q    Q     Q      Q       Q    Q
|-------------------------|-------------------------|
|-----------------0-------|-----------------0-------|
|---------4------------0--|---------4------------0--|
|--4----------------------|--4----------------------|
|-------------------------|-------------------------|
|-------------------------|-------------------------|
|
| +W                        +W
|-------------------------|-------------------------|
|-(5)---------------------|-(5)---------------------|
|-------------------------|-------------------------|
|-(2)---------------------|-(2)---------------------|
|-------------------------|-------------------------|
|-------------------------|-------------------------|


  Gtrs I, II
    PM--|   PM--------------|    PM
                     |-3--|
  E E E E E E E E    E  E E Q  E E Q
|-----------------|-------------------|
|-----------------|-------------------|
|-4-------4-------|------------4---4--|
|---5-4-5---5-4-5-|--2--2-2-2----5----|
|-----------------|-------------------|
|-----------------|-------------------|
|
| Gtr III
| Q   Q   Q   Q      Q      Q  Q   Q
|-----------------|-------------------|
|---------0-------|------------0------|
|-----4-------0---|---------4------0--|
|-5---------------|--2----------------|
|-----------------|-------------------|
|-----------------|-------------------|
|
| Gtr IV
| W                 +W
|-----------------|-------------------|
|-5---------------|-(5)---------------|
|-----------------|-------------------|
|-2---------------|-(2)---------------|
|-----------------|-------------------|
|-----------------|-------------------|


      PM--|   PM-----------|    PM~~~~~~~~~
   E  E E E E E E E    Q   Q  E E Q    +Q   H.
|-------------------|----------------|------------|
|-------------------|----------------|------------|
|--5--------5-------|---------5---5--|-(5)--------|
|-----7-5-7---7-5-7-|--4---4----4----|------------|
|-------------------|----------------|------------|
|-------------------|----------------|------------|
|
|  Q    Q   Q   Q      Q   Q  Q   Q     Q   H.
|-------------------|----------------|------------|
|-----------0-------|---------0------|------------|
|-------5-------0---|------5------0--|--5---------|
|--7----------------|--4-------------|------------|
|-------------------|----------------|------------|
|-------------------|----------------|------------|
|
| +W                  +W               +W
|-------------------|----------------|------------|
|-(5)---------------|-(5)------------|-(5)--------|
|-------------------|----------------|------------|
|-(2)---------------|-(2)------------|-(2)--------|
|-------------------|----------------|------------|
|-------------------|----------------|------------|


    Q=260
    Gtr I
    PM                            PM            PM-------|
    E Q.   H      E Q.    Q  Q    E Q.   H      Q  Q  Q  Q
||--------------|---------------|-------------|--------------|
||o-------------|---------------|-------------|--------------|
||----9----9----|---9-----------|---9----9----|--------------|
||----7----7----|---7-----------|---7----7----|--------------|
||o---7----7----|---7-----------|---7----7----|-4--5--4--2---|
||--0-----------|-0------11--7--|-0-----------|-2--3--2--0---|
|
|   Gtr II
|   PM            PM              PM            PM-------|
|   E Q.   H      E Q.    Q  Q    E Q.   H      Q  Q  Q  Q
||--------------|---------------|-------------|--------------|
||o-------------|---------------|-------------|--------------|
||--------------|---------------|-------------|--------------|
||--------------|---------------|-------------|--------------|
||o---7----7----|---7----10--6--|---7----7----|-4--2--4--5---|
||--0-9----9----|-0-9-----------|-0-9----9----|-2--0--2--3---|


                                             1.
  Gtr I
  PM            PM              PM            PM---------------------|
  E Q.   H      E Q.    Q  Q    E Q.   H      Q  Q  Q  Q    Q  Q  Q  Q
|-------------|---------------|-------------|-------------|--------------||
|-------------|---------------|-------------|-------------|-------------o||
|---9----9----|---9-----------|---9----9----|-------------|--------------||
|---7----7----|---7-----------|---7----7----|-------------|--------------||
|---7----7----|---7-----------|---7----7----|-4--5--4--2--|-4--5--4--2--o||
|-0-----------|-0------11--7--|-0-----------|-2--3--2--0--|-2--3--2--0---||
|
| Gtr II
| PM            PM              PM            PM---------------------|
| E Q.   H      E Q.    Q  Q    E Q.   H      Q  Q  Q  Q    Q  Q  Q  Q
|-------------|---------------|-------------|-------------|--------------||
|-------------|---------------|-------------|-------------|-------------o||
|-------------|---------------|-------------|-------------|--------------||
|-------------|---------------|-------------|-------------|--------------||
|---7----7----|---7----10--6--|---7----7----|-4--2--4--5--|-4--2--4--5--o||
|-0-9----9----|-0-9-----------|-0-9----9----|-2--0--2--3--|-2--0--2--3---||


  2.
  Gtr I
  PM-------|
  Q  Q  Q  Q    Q       Q       Q       Q
|-------------|---------------------------------|
|-------------|---------------------------------|
|-------------|---------------------------------|
|-------------|---------------------------------|
|-4--5--4--2--|-6---------------6---------------|
|-2--3--2--0--|---------8---------------8-------|
|
| Gtr II
| PM-------|
| Q  Q  Q  Q    S S S S S S S S S S S S S S S S
|-------------|---------------------------------|
|-------------|---------------------------------|
|-------------|---------------------------------|
|-------------|-5-5-5-5---------5-5-5-5---------|
|-4--2--4--5--|---------6-6-6-6---------6-6-6-6-|
|-2--0--2--3--|---------------------------------|


  PM-------|
  Q  Q  Q  Q    Q       Q       Q       Q
|-------------|------------------------------------|
|-------------|------------------------------------|
|-------------|------------------------------------|
|-------------|------------------------------------|
|-4--5--4--2--|-6---------------6------------------|
|-2--3--2--0--|---------7---------------8----------|
|
| PM-------|
| Q  Q  Q  Q    S S S S S S S S S S S S S S S S
|-------------|------------------------------------|
|-------------|------------------------------------|
|-------------|------------------------------------|
|-------------|-5-5-5-5---------5-5-5-5------------|
|-4--2--4--5--|---------6-6-6-6---------6-6-6-6----|
|-2--0--2--3--|------------------------------------|


 Drum Break (1:06)
  Q=200
  Gtrs I, II
  W           W           W           W
|----------|------------|----------|------------|
|----------|------------|----------|------------|
|----------|------------|----------|------------|
|----------|------------|----------|------------|
|----------|------------|----------|------------|
|----------|------------|----------|------------|
|
| Gtr IV
| W          +W           W          +W
|----------|------------|----------|------------|
|-5--------|-(5)--------|-6--------|-(6)--------|
|----------|------------|----------|------------|
|-2--------|-(2)--------|-3--------|-(3)--------|
|----------|------------|----------|------------|
|----------|------------|----------|------------|


  W           W           W          W
|----------|------------|----------|------|
|----------|------------|----------|------|
|----------|------------|----------|------|
|----------|------------|----------|------|
|----------|------------|----------|------|
|----------|------------|----------|------|
|
| W          +W           W          W
|----------|------------|----------|------|
|-5--------|-(5)--------|-3--------|-7----|
|----------|------------|----------|------|
|-2--------|-(2)--------|-0--------|-4----|
|----------|------------|----------|------|
|----------|------------|----------|------|


 Riff 4 (1:16)
              |----3-----|
  W           H   Q.  E +H       H.      Q     H      Q  Q
|----------|------------------|-------------|---------------|
|----------|------------------|-------------|---------------|
|----------|------------------|-------------|---------------|
|-9--------|--9---9---9-(9)---|-/7-------7--|--7------------|
|-7--------|--7---7---7-(7)---|-/7-------7--|--7---------7--|
|----------|------------------|-/5-------5--|--5-----/8--7--|
|
| W          +W                  W            +W
|----------|------------------|-------------|---------------|
|-5--------|-(5)--------------|--6----------|-(6)-----------|
|----------|------------------|-------------|---------------|
|-2--------|-(2)--------------|--3----------|-(3)-----------|
|----------|------------------|-------------|---------------|
|----------|------------------|-------------|---------------|


                |----3-----|                   |--3--|
  H.      Q     H   Q.  E +H      H.      Q    H  H  H
|------------|------------------|------------|------------|
|------------|------------------|------------|------------|
|------------|------------------|------------|------------|
|------------|------------------|------------|------------|
|-2-------2--|--2---2---2-(2)---|-0-------0--|-0--0--0----|
|-3-------3--|--3---3---3-(3)---|-1-------1--|-2--2--2----|
|
| W            +W                 W            W
|------------|------------------|------------|------------|
|------------|------------------|-3----------|-7----------|
|-4----------|-(4)--------------|------------|------------|
|------------|------------------|-0----------|-4----------|
|-2----------|-(2)--------------|------------|------------|
|------------|------------------|------------|------------|


  Gtr I
  PM|             PM|             PM|             PM|
  E E Q   H       E E Q   H       E E Q   H       E E Q   H
|---------------|---------------|---------------|---------------|
|---------------|---------------|---------------|---------------|
|-----4---------|-----4---------|---------0-----|---------0-----|
|-2-2-----5-----|-2-2-----5-----|-0-0-0---------|-0-0-0---------|
|-2-2-----------|-2-2-----------|-0-0-----------|-0-0-----------|
|---------------|---------------|---------------|---------------|
|
| Gtr II
| PM|             PM|             PM|             PM|
| E E H.          E E H.          E E H.          E E H.
|---------------|---------------|---------------|---------------|
|---------------|---------------|---------------|---------------|
|---------------|---------------|---------------|---------------|
|-2-2-2---------|-2-2-2---------|-0-0-0---------|-0-0-0---------|
|-2-2-2---------|-2-2-2---------|-0-0-0---------|-0-0-0---------|
|---------------|---------------|---------------|---------------|
|
| Gtr III
| Q   Q   Q  Q    Q   Q   Q  Q    Q   Q   Q  Q    Q   Q   Q  Q
|---------------|---------------|---------------|---------------|
|---------------|---------------|---------------|---------------|
|-4-------4-----|-4-------4-----|-4-------------|-4---5------5--|
|-----2------5--|-----2------5--|-----2---5--2--|---------7-----|
|---------------|---------------|---------------|---------------|
|---------------|---------------|---------------|---------------|


  Gtr I
  PM|             PM|             PM|                                ~~
  E E Q   H       E E Q   H       E E Q  Q.       E    E  E Q  E  E  Q
|---------------|---------------|-------------------|-------------------|
|---------------|---------------|-------------------|-------------------|
|-----4---------|-----4---------|--------0-------12-|-12-\9-9--7-/9-\7--|
|-2-2-----5-----|-2-2-----5-----|-0-0-0-------------|-------------------|
|-2-2-----------|-2-2-----------|-0-0------------10-|-10-\7-7--5-/7-\5--|
|---------------|---------------|-------------------|-------------------|
|
| Gtr II
| PM|             PM|             PM---------|                       ~~
| E E H.          E E H.          E E H      +E   E    E  E Q  E  E  Q
|---------------|---------------|-------------------|-------------------|
|---------------|---------------|-------------------|-------------------|
|---------------|---------------|----------------12-|-12-\9-9--7-/9-\7--|
|-9-9-9---------|-9-9-9---------|-7-7-7------(7)----|-------------------|
|-7-7-7---------|-7-7-7---------|-5-5-5------(5)-10-|-10-\7-7--5-/7-\5--|
|-7-7-7---------|-7-7-7---------|-5-5-5------(5)----|-------------------|
|
| Gtr III
| Q   Q   Q  Q    Q   Q   Q  Q    Q   Q  Q    Q        Q    Q  Q     Q
|---------------|---------------|-------------------|-------------------|
|---------------|---------------|-------------------|-------------------|
|-4-------4-----|-4-------4-----|-4-----------------|--4----5--------5--|
|-----2------5--|-----2------5--|-----2--5----2-----|----------7--------|
|---------------|---------------|-------------------|-------------------|
|---------------|---------------|-------------------|-------------------|


   Riff 5 (1:37)
    Gtr I
     Q  E E   E  E  E  E    Q   E  Q   +S   Q  +S
||-----------------------|-------------------------|
||o----------------------|-------------------------|
||--/9--9-9-/12-12-12-12-|-11--11-11--(11)-\7--(7)-|
||-----------------------|-------------------------|
||o-/7--7-7-/10-10-10-10-|--9---9--9---(9)-\5--(5)-|
||-----------------------|-------------------------|
|
|   Gtr II
|    Q  E E   E  E  E  E    Q   E  Q   +S   Q  +S
||-----------------------|-------------------------|
||o----------------------|-------------------------|
||--/5--5-5-/12-12-12S11-|--7---9--7---(7)-\4--(4)-|
||-----------------------|-------------------------|
||o-/3--3-3-/10-10-10S=9-|--5---7--5---(5)-\2--(2)-|
||-----------------------|-------------------------|


   Q  E E   E  E  E  E    Q   E  Q   +S   Q  +S
|----------------------|---------------------------||
|----------------------|--------------------------o||
|-/9--9-9-/12-12-12-12-|-11--11-11--(11)-\7--(7)---||
|----------------------|---------------------------||
|-/7--7-7-/10-10-10-10-|--9---9--9---(9)-\5--(5)--o||
|----------------------|---------------------------||
|
|  Q  E E   E  E  E  E    Q   E  Q   +S   Q  +S
|----------------------|---------------------------||
|----------------------|--------------------------o||
|-/5--5-5-/12-12-12S11-|--7---9--7---(7)-\4--(4)---||
|----------------------|---------------------------||
|-/3--3-3-/10-10-10S=9-|--5---7--5---(5)-\2--(2)--o||
|----------------------|---------------------------||


   Riff 6 (1:49)
    Q=230
    Gtrs I, II
    PM--------------------------------------|
    S S E S S E E E E E   S S E S S E E E E E
||----------------------|---------------------|
||o---------------------|---------------------|
||----------------------|---------------------|
||--------------------7-|---------------------|
||o---------------0-5---|-----------------5---|
||--3-3-3-2-2-2-3-------|-3-3-3-2-2-2-3-5---5-|


  PM----------------------------------|
  S S E S S E E E E E   E E E E E E E E
|---------------------|------------------||
|---------------------|-----------------o||
|---------------------|-------2-------2--||
|-------------------7-|------------------||
|---------------0-5---|-----4-------3---o||
|-3-3-3-2-2-2-3-------|-2-5-----1-5------||


  PM--------|        PM--------|        PM--------|        PM------------|
  S S E S S E H      S S E S S E H      S S E S S E H      E E E E E E E E
|------------------|------------------|------------------|-----------------|
|------------------|------------------|------------------|-----------------|
|------------------|------------------|------------------|-------2-------2-|
|------------------|------------------|------------------|-----------------|
|------------------|------------------|------------------|-----4-------3---|
|-3-3-3-2-2-2------|-3-3-3-2-2-2------|-3-3-3-2-2-2------|-2-5-----1-5-----|


  Gtrs I, II
  PM--------------------------------------|
  S S E S S E E E E E   S S E S S E E E E E
|---------------------|---------------------|
|---------------------|---------------------|
|---------------------|---------------------|
|-------------------7-|---------------------|
|---------------0-5---|-----------------5---|
|-3-3-3-2-2-2-3-------|-3-3-3-2-2-2-3-5---5-|


  PM----------------------------------|
  S S E S S E E E E E   E E E E E E E E
|---------------------|-----------------|
|---------------------|-----------------|
|---------------------|-------2-------2-|
|-------------------7-|-----------------|
|---------------0-5---|-----4-------3---|
|-3-3-3-2-2-2-3-------|-2-5-----1-5-----|


 Riff 7 (2:08)
  Q=220
  Gtr I
  PM------------|     PM--------------------|
                      |-3-|
  Q  Q  Q  Q    Q  Q  Q Q Q   Q  Q  Q  Q    Q  Q  E E Q
|-------------|-------------|-------------|----------------|
|-------------|-------------|-------------|----------------|
|-------------|-------------|-------------|-------5--------|
|-------------|-------------|-------------|---------7-5\---|
|-7-----7--7--|-6-----6-6-6-|-6-----6--6--|-5--------------|
|-9-----9--9--|-7-----7-7-7-|-7-----7--7--|-6--------------|
|
| Gtr II
| PM----------------------------------------|
|                     |-3-|
| Q  Q  Q  Q    Q  Q  Q Q Q   Q  Q  Q  Q    Q  Q  E E E E
|-------------|-------------|-------------|----------------|
|-------------|-------------|-------------|-------8p5------|
|-------------|-------------|-------------|-----------7p6--|
|-------------|-------------|-------------|----------------|
|-7-----7--7--|-6-----6-6-6-|-6-----6--6--|-5--------------|
|-9-----9--9--|-7-----7-7-7-|-7-----7--7--|-6--------------|


       PM--|   PM~       PM--|   PM~       PM--|   PM~       PM--|
    Q  S S E E E Q    Q  S S E E E Q    Q  S S E E E Q    Q  S S E E E E E   4x
||------------------|-----------------|-----------------|--------------------||
||o-----------------|-----------------|-----------------|-------------------o||
||------------------|-----------------|----------5------|----------5---------||
||------------------|-6--------6---6--|--------------3--|-5----------7-5S4---||
||o-7--------7---7--|-----------------|-6--3-3-3---3----|----1-1-1----------o||
||--9--9-9-9---9----|----7-7-7---7----|-----------------|--------------------||
|
|      PM--|   PM~       PM--|   PM~       PM--|   PM~       PM--|
|   Q  S S E E E Q    Q  S S E E E Q    Q  S S E E E Q    Q  S S E E E E E   4x
||------------------|-----------------|-----------------|--------------------||
||o-----------------|-----------------|-----------------|----------8p5------o||
||------------------|-----------------|----------5------|--------------7-6---||
||------------------|-6--------6---6--|--------------3--|-5------------------||
||o-7--------7---7--|-----------------|-6--3-3-3---3----|----1-1-1----------o||
||--9--9-9-9---9----|----7-7-7---7----|-----------------|--------------------||


  Q=150
  Gtr III
  PM  PM  PM  PM
  E E E E E E E E
|-----------------|
|-----------------|
|-----------------|
|-----------------|
|---0---0---0---0-|
|-3---3---3---3---|


    Q=260
    Gtr I
    S S S S S S S S S S S S S S S S   S S S S S S S S S S S S S S S S   7x
||----------------------------------|-----------------------------------||
||o---------------------------------|----------------------------------o||
||----------------------------------|-----------------------------------||
||------------------7-7-7-7---------|-----------------4-4-4-4-4-4-4-4---||
||o-5-5-5-5-5-5-5-5-----------------|----------------------------------o||
||--------------------------6-6-6-6-|-7-7-7-7-7-7-7-7-------------------||
|
|   Gtr II
|   S S S S S S S S S S S S S S S S   S S S S S S S S S S S S S S S S   7x
||----------------------------------|-----------------------------------||
||o---------------------------------|----------------------------------o||
||----------------------------------|-----------------------------------||
||----------------------------------|-----------------------------------||
||o-----------------5-5-5-5---------|-----------------5-5-5-5-5-5-5-5--o||
||--3-3-3-3-3-3-3-3---------6-6-6-6-|-7-7-7-7-7-7-7-7-------------------||


  Q=240
  Gtr III
  Q  Q  Q  Q     Q   Q  Q  Q     Q   Q  Q  Q     Q   Q  Q  Q
|-------------|---------------|---------------|---------------|
|-------0-----|---------0-----|---------0-----|---------0-----|
|----0-----0--|------0-----0--|------4-----0--|------4-----0--|
|-2-----------|--2------------|--4------------|--4------------|
|-------------|---------------|---------------|---------------|
|-------------|---------------|---------------|---------------|
|
| Gtr IV
| W             +W              +W              +W
|-------------|---------------|---------------|---------------|
|-5-----------|-(5)-----------|-(5)-----------|-(5)-----------|
|-------------|---------------|---------------|---------------|
|-2-----------|-(2)-----------|-(2)-----------|-(2)-----------|
|-------------|---------------|---------------|---------------|
|-------------|---------------|---------------|---------------|


  Gtr III
  Q  Q  Q  Q     Q   Q  Q  Q     Q   Q  Q  Q     Q   Q  Q  Q
|-------------|---------------|---------------|---------------|
|-------0-----|---------0-----|---------0-----|---------0-----|
|----4-----0--|------4-----0--|------5-----0--|------5-----0--|
|-5-----------|--2------------|--7------------|--4------------|
|-------------|---------------|---------------|---------------|
|-------------|---------------|---------------|---------------|
|
| Gtr IV
| W             +W              +W              +W
|-------------|---------------|---------------|---------------|
|-5-----------|-(5)-----------|-(5)-----------|-(5)-----------|
|-------------|---------------|---------------|---------------|
|-2-----------|-(2)-----------|-(2)-----------|-(2)-----------|
|-------------|---------------|---------------|---------------|
|-------------|---------------|---------------|---------------|


  Gtrs I, II
    PM--------|               PM------|
  E S S S S S S E Q.       E  S S S S S S E Q.
|-----------------------|-------------------------|
|-----------------------|-------------------------|
|-4-------------5-------|--4--------------5-------|
|---2-2-2-2-2-2---------|-----2-2-2-2-2-2---------|
|-----------------------|-------------------------|
|-----------------------|-------------------------|
|
| Gtr III
| Q     Q       Q    Q     Q      Q       Q    Q
|-----------------------|-------------------------|
|---------------0-------|-----------------0-------|
|-------0------------0--|---------0------------0--|
|-2---------------------|--2----------------------|
|-----------------------|-------------------------|
|-----------------------|-------------------------|
|
| Gtr IV
| W                       +W
|-----------------------|-------------------------|
|-5---------------------|-(5)---------------------|
|-----------------------|-------------------------|
|-2---------------------|-(2)---------------------|
|-----------------------|-------------------------|
|-----------------------|-------------------------|


      PM--------|               PM--------|
   E  S S S S S S E Q.       E  S S S S S S E Q.
|-------------------------|-------------------------|
|-------------------------|-------------------------|
|--4--------------5-------|--4--------------5-------|
|-----1-1-1-1-1-1---------|-----1-1-1-1-1-1---------|
|-------------------------|-------------------------|
|-------------------------|-------------------------|
|
|  Q      Q       Q    Q     Q      Q       Q    Q
|-------------------------|-------------------------|
|-----------------0-------|-----------------0-------|
|---------4------------0--|---------4------------0--|
|--4----------------------|--4----------------------|
|-------------------------|-------------------------|
|-------------------------|-------------------------|
|
| +W                        +W
|-------------------------|-------------------------|
|-(5)---------------------|-(5)---------------------|
|-------------------------|-------------------------|
|-(2)---------------------|-(2)---------------------|
|-------------------------|-------------------------|
|-------------------------|-------------------------|


  Gtrs I, II
    PM--|   PM--------------|    PM         PM--|   PM-----------|    PM~
                     |-3--|
  E E E E E E E E    E  E E Q  E E Q     E  E E E E E E E    Q   Q  E E Q
|-----------------|-------------------|-------------------|-----------------|
|-----------------|-------------------|-------------------|-----------------|
|-4-------4-------|------------4---4--|--5--------5-------|---------5---5---|
|---5-4-5---5-4-5-|--2--2-2-2----5----|-----7-5-7---7-5-7-|--4---4----4-----|
|-----------------|-------------------|-------------------|-----------------|
|-----------------|-------------------|-------------------|-----------------|
|
| Gtr III
| Q   Q   Q   Q      Q      Q  Q   Q     Q    Q   Q   Q      Q   Q  Q   Q
|-----------------|-------------------|-------------------|-----------------|
|---------0-------|------------0------|-----------0-------|---------0-------|
|-----4-------0---|---------4------0--|-------5-------0---|------5------0---|
|-5---------------|--2----------------|--7----------------|--4--------------|
|-----------------|-------------------|-------------------|-----------------|
|-----------------|-------------------|-------------------|-----------------|
|
| Gtr IV
| W                 +W                  +W                  +W
|-----------------|-------------------|-------------------|-----------------|
|-5---------------|-(5)---------------|-(5)---------------|-(5)-------------|
|-----------------|-------------------|-------------------|-----------------|
|-2---------------|-(2)---------------|-(2)---------------|-(2)-------------|
|-----------------|-------------------|-------------------|-----------------|
|-----------------|-------------------|-------------------|-----------------|


  Q=230
  Gtr I
  PM------------------------------------------------------------|
  S S E S S E E E E E   S S E S S E E E E E   S S E S S E E E E E
|---------------------|---------------------|------------------------|
|---------------------|---------------------|------------------------|
|---------------------|---------------------|------------------------|
|-------------------7-|---------------------|-------------------7----|
|---------------0-5---|-----------------5---|---------------0-5------|
|-3-3-3-2-2-2-3-------|-3-3-3-2-2-2-3-5---5-|-3-3-3-2-2-2-3----------|
|
| Gtr II
| PM--------|           PM--------|           PM--------|
| S S E S S E H         S S E S S E H         S S E S S E       H
|---------------------|---------------------|------------------------|
|---------------------|---------------------|------------------------|
|---------------------|---------------------|------------------------|
|---------------------|---------------------|------------------------|
|---------------------|---------------------|------------------------|
|-3-3-3-2-2-2---------|-3-3-3-2-2-2---------|-3-3-3-2-2-2------------|


  Q=200
  Gtr I
   Q  E E   E  E  E  E    Q   E  Q   +S   Q  +S
|----------------------|-------------------------|
|----------------------|-------------------------|
|-/9--9-9-/12-12-12-12-|-11--11-11--(11)-\7--(7)-|
|----------------------|-------------------------|
|-/7--7-7-/10-10-10-10-|--9---9--9---(9)-\5--(5)-|
|----------------------|-------------------------|
|
| Gtr II
|  Q  E E   E  E  E  E    Q   E  Q   +S   Q  +S
|----------------------|-------------------------|
|----------------------|-------------------------|
|-/5--5-5-/12-12-12S11-|--7---9--7---(7)-\4--(4)-|
|----------------------|-------------------------|
|-/3--3-3-/10-10-10S=9-|--5---7--5---(5)-\2--(2)-|
|----------------------|-------------------------|


   Q  E E   E  E  E  E    Q   E  Q   +S   Q  +S
|----------------------|---------------------------|
|----------------------|---------------------------|
|-/9--9-9-/12-12-12-12-|-11--11-11--(11)-\7--(7)---|
|----------------------|---------------------------|
|-/7--7-7-/10-10-10-10-|--9---9--9---(9)-\5--(5)---|
|----------------------|---------------------------|
|
|  Q  E E   E  E  E  E    Q   E  Q   +S   Q  +S
|----------------------|---------------------------|
|----------------------|---------------------------|
|-/5--5-5-/12-12-12S11-|--7---9--7---(7)-\4--(4)---|
|----------------------|---------------------------|
|-/3--3-3-/10-10-10S=9-|--5---7--5---(5)-\2--(2)---|
|----------------------|---------------------------|


  Q=230
  Gtrs I, II
  PM--------|        PM--------|        PM--------|        PM------------|
  S S E S S E H      S S E S S E H      S S E S S E H      E E E E E E E E
|------------------|------------------|------------------|-----------------|
|------------------|------------------|------------------|-----------------|
|------------------|------------------|------------------|-------2-------2-|
|------------------|------------------|------------------|-----------------|
|------------------|------------------|------------------|-----4-------3---|
|-3-3-3-2-2-2------|-3-3-3-2-2-2------|-3-3-3-2-2-2------|-2-5-----1-5-----|


  Gtrs I, II
  PM--------------------------------------|
  S S E S S E E E E E   S S E S S E E E E E
|---------------------|---------------------|
|---------------------|---------------------|
|---------------------|---------------------|
|-------------------7-|---------------------|
|---------------0-5---|-----------------5---|
|-3-3-3-2-2-2-3-------|-3-3-3-2-2-2-3-5---5-|


  PM----------------------------------|
  S S E S S E E E E E   E E E E E E E E
|---------------------|-----------------|
|---------------------|-----------------|
|---------------------|-------2-------2-|
|-------------------7-|-----------------|
|---------------0-5---|-----4-------3---|
|-3-3-3-2-2-2-3-------|-2-5-----1-5-----|


    Q=220
    Gtr I
       PM--|   PM~       PM--|   PM~       PM--|   PM~       PM--|
    Q  S S E E E Q    Q  S S E E E Q    Q  S S E E E Q    Q  S S E E E E E
||------------------|-----------------|-----------------|--------------------||
||o-----------------|-----------------|-----------------|-------------------o||
||------------------|-----------------|----------5------|----------5---------||
||------------------|-6--------6---6--|--------------3--|-5----------7-5S4---||
||o-7--------7---7--|-----------------|-6--3-3-3---3----|----1-1-1----------o||
||--9--9-9-9---9----|----7-7-7---7----|-----------------|--------------------||
|
|   Gtr II
|      PM--|   PM~       PM--|   PM~       PM--|   PM~       PM--|
|   Q  S S E E E Q    Q  S S E E E Q    Q  S S E E E Q    Q  S S E E E E E
||------------------|-----------------|-----------------|--------------------||
||o-----------------|-----------------|-----------------|----------8p5------o||
||------------------|-----------------|----------5------|--------------7-6---||
||------------------|-6--------6---6--|--------------3--|-5------------------||
||o-7--------7---7--|-----------------|-6--3-3-3---3----|----1-1-1----------o||
||--9--9-9-9---9----|----7-7-7---7----|-----------------|--------------------||


  Q=260
  Gtr I
  PM                            PM            PM-------|
  E Q.   H      E Q.    Q  Q    E Q.   H      Q  Q  Q  Q
|-------------|---------------|-------------|-------------|
|-------------|---------------|-------------|-------------|
|---9----9----|---9-----------|---9----9----|-------------|
|---7----7----|---7-----------|---7----7----|-------------|
|---7----7----|---7-----------|---7----7----|-4--5--4--2--|
|-0-----------|-0------11--7--|-0-----------|-2--3--2--0--|
|
| Gtr II
| PM            PM              PM            PM-------|
| E Q.   H      E Q.    Q  Q    E Q.   H      Q  Q  Q  Q
|-------------|---------------|-------------|-------------|
|-------------|---------------|-------------|-------------|
|-------------|---------------|-------------|-------------|
|-------------|---------------|-------------|-------------|
|---7----7----|---7----10--6--|---7----7----|-4--2--4--5--|
|-0-9----9----|-0-9-----------|-0-9----9----|-2--0--2--3--|


  Gtr I
  PM            PM              PM            PM---------------------|
  E Q.   H      E Q.    Q  Q    E Q.   H      Q  Q  Q  Q    Q  Q  Q  Q
|-------------|---------------|-------------|-------------|-------------*|
|-------------|---------------|-------------|-------------|-------------*|
|---9----9----|---9-----------|---9----9----|-------------|-------------*|
|---7----7----|---7-----------|---7----7----|-------------|-------------*|
|---7----7----|---7-----------|---7----7----|-4--5--4--2--|-4--5--4--2--*|
|-0-----------|-0------11--7--|-0-----------|-2--3--2--0--|-2--3--2--0--*|
|
| Gtr II
| PM            PM              PM            PM---------------------|
| E Q.   H      E Q.    Q  Q    E Q.   H      Q  Q  Q  Q    Q  Q  Q  Q
|-------------|---------------|-------------|-------------|-------------*|
|-------------|---------------|-------------|-------------|-------------*|
|-------------|---------------|-------------|-------------|-------------*|
|-------------|---------------|-------------|-------------|-------------*|
|---7----7----|---7----10--6--|---7----7----|-4--2--4--5--|-4--5--4--2--*|
|-0-9----9----|-0-9-----------|-0-9----9----|-2--0--2--3--|-2--3--2--0--*|

End.

  Visit MetalTabs.com for more metal tablature

bottom separator

Contact Us | Privacy Policy | Disclaimer | Legal Notice
Copyright © 2001-2014 MetalTabs.com. All Rights Reserved.