top separator

Home

Forum

What's New

Submit a Tab

FAQ

Links

Contact Us

Link to Us

MuSpy.com

MetalTabs.com logo

Bands

0-9

A

B

C

D

E

F

G

H

I

J

K

L

M

N

O

P

Q

R

S

T

U

V

W

X

Y

Z

Search

What

Where
 

At The Gates - "Blinded By Fear" Bass Tab

Plain Text Version
More At The Gates Tabs

Hits: 8158
Rated: 3.86 out of 5 (7 votes)
Updated: 2005-07-21 16:30:55

 

By:

Tulvox

sendpm.gif

email.gif

Important note
This tab is available online because we obtained explicit permission from At The Gates or their label.


#----------------------------------PLEASE NOTE---------------------------------#
#This file is the author's own work and represents their interpretation of the #
#song. You may only use this file for private study, scholarship, or research. #
#Unless specified otherwise, this is NOT an official tab from the band members.#
#------------------------------------------------------------------------------#

  Visit MetalTabs.com for more metal tablature
  
Code:
Band:  At The Gates
Album: Slaughter of the Soul - 1995
Song:  Blinded By Fear

Date: 6/26/2005
Transcribed By: Jacob Fitzlaff
Email:  tomorrowisdread@hotmail.com



Tuning B E A D G

Intro
|--------|-----------------------------------|
|--------|*---------------------------------*|
|--------|----------------7------------------|
|--32----|*-10----109----9-----910----------*|
|----32--|----0000---0000--8888---7777-------|

|------------------------------------------|
|*----------------------------------------*|
|------------------------------------------|
|*------------2---6------------2-1--------*|
|--0-0-0-0-3p2-3p2--0-0-0-0-2h3-0----------|

Verse
|--------------------------------|----------------------------------------|
|*------------------------------*|*--------------------------------------*|
|------------------7-------------|----------------------------------------|
|*--10----109-----9-----910-----*|*-------------2---6------------2-1-----*|
|------0000---0000--8888---7777--|---0-0-0-0-3p2-3p2--0-0-0-0-3p2-0-------|

|--------------------------------|------------|
|*------------------------------*|------------|
|------------9-8----------9------|------------|
|*----------7-7----------7-76---*|------32----|
|---0-0-0-0------0-0-0-0---------|--0000--32--|

Bridge
|------------------------------|---------------------------------|
|*----------------------------*|*-------------------------------*|
|------------------------------|-----------------7---------------|
|*--------54--------32--------*|*--10----109----9-----910-------*|
|----3--65-----1--43-----------|-----0000---0000--8888---7777----|

|---------------------------------------|
|---------------------------------------|
|---------------------------------------|
|----------33333333------------32-------|
|--00000000--------555555553333--32-----|

  Visit MetalTabs.com for more metal tablature

bottom separator

Contact Us | Privacy Policy | Disclaimer | Legal Notice
Copyright © 2001-2014 MetalTabs.com. All Rights Reserved.