top separator

Home

Forum

What's New

Submit a Tab

FAQ

Links

Contact Us

Link to Us

MuSpy.com

MetalTabs.com logo

Bands

0-9

A

B

C

D

E

F

G

H

I

J

K

L

M

N

O

P

Q

R

S

T

U

V

W

X

Y

Z

Search

What

Where
 

As I Lay Dying - "Confined" Guitar Tab

Plain Text Version
More As I Lay Dying Tabs

Hits: 6751
Rated: 2.00 out of 5 (1 vote)
Updated: 2005-07-21 16:21:22

 

By:

sendpm.gif

email.gif

Important note
This tab is available online because we obtained explicit permission from As I Lay Dying or their label.


#----------------------------------PLEASE NOTE---------------------------------#
#This file is the author's own work and represents their interpretation of the #
#song. You may only use this file for private study, scholarship, or research. #
#Unless specified otherwise, this is NOT an official tab from the band members.#
#------------------------------------------------------------------------------#

  Visit MetalTabs.com for more metal tablature
  
Band:  As I Lay Dying
Album: Shadows Are Security
Song:  Confined

Copyright (c)  (Metal Blade) (2005)
Version 1.0 June 2005


Transcribed By: Chris Boser
Email:          Bullboze@optonline.net

.  - palm mute           /  - slide up to
\  - slide down to       ~  - vibrato
h  - hammer on           b  - Bend
p  - pull off            Suffixes for bend
t  - tap                 f  - full bend    h - half bend
ph - pinched harmonic    q  - quarter bend t - tap bend
*  - see comment         ^  - Hold bend    r release bend
x  - Stuccatto           ~  - vibrato bend
,  - slight palm mute    () - ghost note, sustained note
"  - tremolo note        <> - Trill

Tuning C G C F A D


INTRO
 (0:00-09)
D|--------|-----------------------------------------------------------|
A|--------|-----------------------------------------------------------|
F|--------|-----------------------------------------------------------|
C|--------|-----------------------------------------------------------|
G|--------|-----0-0-0-0-0-0--0-0-0-0-00-0-0-000-0-0-------------------|
C|--------|-----0-0-0-0-0-0--0-0-0-0-00-0-0-000-0-0-------------------|
                ... . . . .  . . . . .... . ... . .

INTRO/VERSE
D|-----------------------------------------------------------------------------|
A|-----------------------------------------------------------------------------|
F|-----------------------------------------------------------------------------|
C|-----------------------------------------------------------------------------|
G|----5-7----8-10-873/5-----5-7----87-873/5----5-7-8-10-873/5---5-7---87-8753/5|
C|--00----00-------------00-----00-----------00--------------00----000---------|
                                                 At 0:47 add harmoninc on 5^



D|-------------------------------------------------------------------|
A|-------------------------------------------------------------------|
F|-------------------------------------------------------------------|
C|-------------------------------------------------------------------|
G|----------87----------10-8-----------------------------------------|
C|-0-00-000----0-00-000-------0-0-000-8-7-5-7p5-3--------------------|
   . .. ...    . .. ...       . . ...


D|-----------------------------------------------------------------------|
A|-----------------------------------------------------------------------|
F|-----------------------------------------------------------------------|
C|------------------------7----------------------------------------------|
G|---------87----------785-----------------------------------------------|
C|0-00-000----0-00-000--------0-0-000-0-8-7-5-7p5-3----------------------|
  . .. ...    . .. ...        . . ... .

CHROUS

D|----------------------------------|---------------------------------------|
A|----------------------------------|---------------------------------------|
F|----------------------------------|---------------------------------------|
C|-----7-5----5-7-----7-5-7-5-------|------------7-5---5--------------------|
G|--5-8---5-8------5-8-----8-5------|-------5-8-----5-8-5-------------------|
C|00--------------00----------------|----00---------------------------------|
                                                          last time

AFTER-CHORUS
D|-------------------------------------------------------------------|
A|-------------------------------------------------------------------|
F|-------------------------------------------------------------------|
C|-------8~--7---5~--------------------------------------------------|
G|-------8~--7---5~--------------------------------------------------|
C|-------8~--7---5~--------------------------------------------------|

THEN VERSE

THE CHORUS

AFTER-CHORUS (optional)

ENDING
D|-----------------------------------------------------------------------------|
A|-----------------------------------------------------------------------------|
F|-----------------------------------------------------------------------------|
C|-----------------------------------------------------------------------------|
G|-00-000-000---00-00-00-00-00-00--00-000-000--0-------------------------------|
C|-00-000-000---00-00-00-00-00-00--00-000-000--0-8-7-5-7p5-3-------------------|
   .. ... ...   .. .. .. .. .. ..  .. ... ...  .

D|-----------------------------------------------------------------------------|
A|-----------------------------------------------------------------------------|
F|-----------------------------------------------------------------------------|
C|-----------------------------------------------------------------------------|
G|-00-000-000---00-00-00-00-00-00--00-000-000--0-----------8-------------------|
C|-00-000-000---00-00-00-00-00-00--00-000-000--0-8-7-5-7p5---------------------|
   .. ... ...   .. .. .. .. .. ..  .. ... ...  .


D|-------------------------------------------------------------------|
A|-------------------------------------------------------------------|
F|-------------------------------------------------------------------|
C|-------------------------------------------------------------------|
G|----------87----------10-8-----------------------------------------|
C|-0-00-000----0-00-000-------0-0-000-8-7-5-7p5-3--------------------|
   . .. ...    . .. ...       . . ...


D|-----------------------------------------------------------------------|
A|-----------------------------------------------------------------------|
F|-----------------------------------------------------------------------|
C|------------------------7----------------------------------------------|
G|---------87----------785-----------------------------------------------|
C|0-00-000----0-00-000--------0-0-000-0-8-7-5-7p5-3----------------------|
  . .. ...    . .. ...        . . ... .

END ON:
D|----------|
A|----------|
F|----------|
C|----0~----|Fade Away
G|----0~----|
C|----0~----|

END

  Visit MetalTabs.com for more metal tablature

bottom separator

Contact Us | Privacy Policy | Disclaimer | Legal Notice
Copyright © 2001-2014 MetalTabs.com. All Rights Reserved.