top separator

Home

Forum

FAQ

Contact Us

Link to Us

MetalTabs.com logo

Bands

0-9

A

B

C

D

E

F

G

H

I

J

K

L

M

N

O

P

Q

R

S

T

U

V

W

X

Y

Z

Nightwish - "Over The Hills And Far Away (Gary Moore -cover)" Bass Tab

Plain Text Version
More Nightwish Tabs

Hits: 3669
Rated: 1.00 out of 5 (1 vote)
Updated: 2005-07-21 16:19:47

By:

FinnishBass


#----------------------------------PLEASE NOTE---------------------------------#
#This file is the author's own work and represents their interpretation of the #
#song. You may only use this file for private study, scholarship, or research. #
#Unless specified otherwise, this is NOT an official tab from the band members.#
#------------------------------------------------------------------------------#

  Visit MetalTabs.com for more metal tablature
  
Band:  Nightwish
Album: Over The Hills And Far Away
Song:  Over The Hills And Far Away


Transcribed By: FinnishBass
Email:          Zonidas@netti.fi


.  - palm mute           /  - slide up to
\  - slide down to       ~  - vibrato
h  - hammer on           b  - Bend
p  - pull off            Suffixes for bend
t  - tap                 f  - full bend    h - half bend
ph - pinched harmonic    q  - quarter bend t - tap bend
*  - see comment         ^  - Hold bend    r release bend
x  - Stuccatto           ~  - vibrato bend
,  - slight palm mute    () - ghost note, sustained note
"  - tremolo note        <> - Trill

Tuning E A D G

Intro
G -------------------------------|
D -------------------------------|
A --------------------5555/7777--|
E -0-02-00-0-0-02-00-0-----------|

Verse
G -------------------------------------------------------|
D -------------------------------------------------------|
A ---------------------5(16x)--------------5(16x)-7(16x)-|
E -0(16x)-3(16x)-0(16x)-------0(16x)-3(16x)--------------|

Pre Chorus
G ------------------------------------|
D ------------------------------------|
A -3(16x)-5(16x)-3(16x)-5(8x)-2r---5--|
E ------------------------------------|

Chorus
G ------------------|
D ------------------|
A -----5-7-5---3-5--| 2x
E -0-3-------3------|

After Chorus
G -------------------|
D -------------------|
A -------------------|
E -0000000000003202--|

verse
Pre Chorus
Chorus 2x

After Chorus
G -------------------|
D -------------------|
A -------------5555--|
E -0-00033-3333------|

No bass in this part, next:
Bridge
G --------------------------------|
D --------------------------------|
A --------------------------------| Play this a while.
E -0-0000-0-0000-0-0000-00000000--|

No bass in here, either.
Bridge II
G ----------------------------------|
D ----------------------------------|
A ----------------------------------|
E -0000---0---0-0000--0000-0253202--|

While guitar solo, play the verse 1x.

Pre Chorus

Then:
G ------------------|
D ------------------|
A -----7-9-7---5-7--| Play this to the very end.
E -2-5-------5------|

-kay, Im glad if this helped. :)

 -FinnishBass

  Visit MetalTabs.com for more metal tablature

bottom separator

Contact Us | Privacy Policy | Disclaimer
Copyright © 2001-2014 MetalTabs.com. All Rights Reserved.