top separator

Home

Forum

What's New

Submit a Tab

FAQ

Links

Contact Us

Link to Us

MetalTabs.com logo

Bands

0-9

A

B

C

D

E

F

G

H

I

J

K

L

M

N

O

P

Q

R

S

T

U

V

W

X

Y

Z

Search

What

Where
 

Norther - "Nothing Left" Guitar Tab

Plain Text Version
More Norther Tabs

Hits: 4481
Rated: 3.00 out of 5 (2 votes)
Updated: 2005-07-21 16:13:27

 

By:

basstard

sendpm.gif

email.gif

Important note
This tab is available online because we obtained explicit permission from Norther or their label.


#----------------------------------PLEASE NOTE---------------------------------#
#This file is the author's own work and represents their interpretation of the #
#song. You may only use this file for private study, scholarship, or research. #
#Unless specified otherwise, this is NOT an official tab from the band members.#
#------------------------------------------------------------------------------#

  Visit MetalTabs.com for more metal tablature
  
Band:  NORTHER
Album: DREAMS OF ENDLESS WAR
Song:  NOTHING LEFT

Copyright (c)  spikefarm 2002

Transcribed By: (Héctor)
Email:          (nothings66@yahoo.com)



Tuning E A D G B E

Im sorry that the solo is missing but im working on it, after all this is
the first song I tab

 ..
|---------------------|---|-----------------------------------------|
|---------------------|---|--8-------------------------------------8|
|----10-9-7-9-10-9-7--|x3-|-----10-9-7-9-7-------7----------7-9-10--|
|---------------------|---|----------------10-9----10-9-10----------|
|-00------------------|---|-----------------------------------------|
|-00------------------|---|-----------------------------------------|
 ..                 ......                 ......
|----------------------------------------------------------------|
|----------------------------------------------------------------|
|---10-9-7-9-10-9------------10-9-7-9-10-9-------10-9-7-9-10-9-7-|
|----------------------------------------------------------------|
|00-----------------000000-----------------000000----------------|
|00-----------------000000-----------------000000----------------|

|----------------------8-10-12-13-15-17-19--|
|8-------------8-10-12----------------------|
|--10-9-7-9-10------------------------------|
|-------------------------------------------|
|-------------------------------------------|
|-------------------------------------------|




|--------------------------------------------------------------------
|--------------------------------------------------------------------
|9------9------9----5------5------5----7------7------7----5------5---
|7-7777-7-7777-7-77-3-3333-3-3333-3-33-5-5555-5-5555-5-55-5-5555-5---
|--------------------------------------------------------------------
|--------------------------------------------------------------------


-------|-------------------------------------------------------------|
-------|-------------------------------------------------------------|
-----5-|-9------9------9----7------7------7----5------5------5----4-7|
5555-5-|-7-7777-7-7777-7-77-5-5555-5-5555-5-55-3-3333-3-3333-3-33-2-5|
-------|-------------------------------------------------------------|
-------|-------------------------------------------------------------|




|-----------------------------------------------|
|-----------------------------------------------|
|----------7------------------5-7-9-7-5---------|
|7-10-9-10---10-9-10---7-9-10-------------------|
|-----------------------------------------------|
|-----------------------------------------------|


|-----------8--7---8-10-12---13-12-10---8-7-----------------------|
|10-----10--------------------------------------------------|
|-----9--------------------------------------------------|
|-------------------------------------------------------------------|
|-------------------------------------------------------------------|
|-------------------------------------------------------------------|


|-----------8--7---8-10-12---13-12-10---8-7--1212-1010-88-77---------|
|10-----10-----------------------------------------------------------|
|-----9--------------------------------------------------------------|
|--------------------------------------------------------------------|
|--------------------------------------------------------------------|
|--------------------------------------------------------------------|


solo rythm


||--------------------------------------------------------------------
||--------------------------------------------------------------------
||9------9------9----5------5------5----7------7------7----5------5---
||7-7777-7-7777-7-77-3-3333-3-3333-3-33-5-5555-5-5555-5-55-5-5555-5---
||--------------------------------------------------------------------
||--------------------------------------------------------------------


-------|-------------------------------------------------------------
-------|-------------------------------------------------------------
-----5-|-9------9------9----7------7------7----5------5------5-------
5555-5-|-7-7777-7-7777-7-77-5-5555-5-5555-5-55-3-3333-3-3333-3-33----
-------|-------------------------------------------------------------
-------|-------------------------------------------------------------

|--------------------||
|--------------------||
|4------4------4-----||
|2-2222-2-2222-2-22--||
|--------------------||
|--------------------||








|----------------------------------------------------------------|
|----------------------------------8-10--------------------------|
|---10-9-7-9-10-9-7----10-9-7-9-10----------10-9-7-9-10-9-7------|
|----------------------------------------------------------------|
|00------------------00-------------------00---------------------|
|00------------------00-------------------00---------------------|



|--------------------------------------------------------------|
|------------8-------------------------------------------------|
|-----10-9-7---10-9-7-9-7--------------------------------------|
|--------------------------10-9--------------------------------|
|--00----------------------------------------------------------|
|--00----------------------------------------------------------|



|----------------------------------------------------------------|
|----------------------------------8-10--------------------------|
|---10-9-7-9-10-9-7----10-9-7-9-10----------10-9-7-9-10-9-7------|
|----------------------------------------------------------------|
|00------------------00-------------------00---------------------|
|00------------------00-------------------00---------------------|


|----------------------8-----------------------------|
|-----------10-8-10-12---12-10-8---------------------|
|----10-9-7------------------------------------------|
|----------------------------------------------------|
|00--------------------------------------------------|
|00--------------------------------------------------|




|----------------------------------------------------------------|
|----------------------------------8-10--------------------------|
|---10-9-7-9-10-9-7----10-9-7-9-10----------10-9-7-9-10-9-7------|
|----------------------------------------------------------------|
|00------------------00-------------------00---------------------|
|00------------------00-------------------00---------------------|



|--------------------------------------------------------------|
|------------8-------------------------------------------------|
|-----10-9-7---10-9-7-9-7--------------------------------------|
|--------------------------10-9-7-------------------------------|
|--00----------------------------------------------------------|
|--00----------------------------------------------------------|

  Visit MetalTabs.com for more metal tablature

bottom separator

Contact Us | Privacy Policy | Disclaimer | Legal Notice
Copyright © 2001-2014 MetalTabs.com. All Rights Reserved.