top separator

Home

Forum

What's New

Submit a Tab

FAQ

Links

Contact Us

Link to Us

MetalTabs.com logo

Bands

0-9

A

B

C

D

E

F

G

H

I

J

K

L

M

N

O

P

Q

R

S

T

U

V

W

X

Y

Z

Search

What

Where
 

Aria (RU) - "Flag of Truce" Bass Tab

Plain Text Version
More Aria (RU) Tabs

Hits: 1965
Rated: 3.50 out of 5 (2 votes)
Updated: 2005-07-21 14:09:25

 

By:

sendpm.gif

email.gif

Important note
This tab is available online because we obtained explicit permission from Aria (RU) or their label.


#----------------------------------PLEASE NOTE---------------------------------#
#This file is the author's own work and represents their interpretation of the #
#song. You may only use this file for private study, scholarship, or research. #
#Unless specified otherwise, this is NOT an official tab from the band members.#
#------------------------------------------------------------------------------#

  Visit MetalTabs.com for more metal tablature
  
Band:  Aria
Album: Christening by Fire
Song:  Flag of Truce

Copyright (c) (2003)
Version 1.0 - (22/5/05)

Transcribed By: clad in shadow
Email:          gtopro@hotmail.com

.  - palm mute           /  - slide up to
\  - slide down to       ~  - vibrato
h  - hammer on           b  - Bend
p  - pull off            Suffixes for bend
t  - tap                 f  - full bend    h - half bend
ph - pinched harmonic    q  - quarter bend t - tap bend
*  - see comment         ^  - Hold bend    r release bend
x  - Stuccatto           ~  - vibrato bend
,  - slight palm mute    () - ghost note, sustained note
"  - tremolo note        <> - Trill

Tuning: Eb Ab Db Gb (Half-step Down)

Intro
||----------------------||----------------------||
||----------------------||----------------------||
||-----Guitar Intro-----||------------5/8h10----||
||----------------------||----------------------||

|----------------------| x 3 |-------------------------|   Repeat twice
|----------------------|     |-------------------------|
|----------------------|     |----------------3/5h8/---|
|--3----3----3----3----|     |--3----3----3h6----------|

Main Riff
|--------------------------|--------------------------|
|--------------------------|--------------------------|
|--3--3--3--3--3--3--3--3--|--5--5--5--5--5--5--5--5--|
|--------------------------|--------------------------|

|--------------------------|--------------------------|
|--------------------------|--------------------------|
|--6--6--6--6--6--6--6--6--|--5--5--5--5--5--5--5--5--|
|--------------------------|--------------------------|

|--------------------------|--------------------------|
|--------------------------|--------------------------|
|--3--3--3--3--3--3--3--3--|--5--5--5--5--5--5--5--5--|
|--------------------------|--------------------------|

                           Fill 1
|--------------------------|---------------------3--5-|
|--------------------------|-----------------3h5------|
|--6--6--6--6--6--6--6--6--|--6--3--3--3--3-----------|
|--------------------------|--------------------------|

                                  Fill 2
|--------------------------|--------------------------|
|--------------------------|--------------------------|
|--------Main Riff---------|--6--3--3--3--3--3--3-3---|
|--------------------------|------------------------4-|

Chorus
|---------------------|---------------------|---------------------|
|---------------------|---------------------|---------------------|
|--8-------------8----|----8-------6----8---|--6-------------6----|
|---------8-----------|-------8-------------|---------6-----------|

|---------------------|---------------------|---------------------|
|---------------------|---------------------|---------------------|
|---6------------6----|--8-------------8----|----8-------8----9---|
|------6----8---------|---------8-----------|-------8-------------|

|---------------------|---------------------|---------------------|
|---------------------|---------------------|---------------------|
|--10-------------10--|--10-----------------|--8-------------8----|
|---------10----------|------10----8----10--|---------8-----------|

|---------------------|---------------------|---------------------|
|---------------------|---------------------|---------------------|
|---8-------6----8----|--6-------------6----|---6------------6/---|
|------8--------------|---------6-----------|------6----8---------|

|---------------------|---------------------|---------------------|
|---------------------|---------------------|---------------------|
|--11-------------11--|--11-------11----12--|--13-------------13--|
|----------11---------|-------11------------|---------13----------|

|---------------------|
|---------------------|
|--13-------13----14--|
|-------13------------|

Riff X
|-------------------------|--------------------5--5--|
|*-----------------------*|--------------------------|
|*-3--3--3--3--3--3--33-*|--3--3--3--3--3--3--------|
|-------------------------|--------------------------|

Fill 3
|--5--3--------------------|-------------------------|
|--------5--3--------------|-------------------------|
|--------------6--5--3-----|-----Riff X + Fill 3-----|
|-----------------------6--|-------------------------|

           Fill 4
|----------|--5--3-----------3--5----|
|----------|--------5--3--5----------|
|--Riff X--|-------------------------|
|----------|-------------------------|

Riff X + Fill 3

Fill 5
|--------------------------|----------------------|
|--------------------------|----------------------|
|--------------------------|----------------------|
|--3--3--6--3--3--5--3--3--|--4--3--6--3----------|

Main Riff + Fill 1
Main Riff + Fill 2
Chorus

Solo
|--------------------------|------------------------| x2
|*------------------------*|*----------------------*|
|*-6--6--6--6--6--6--6--6-*|*----------------------*|
|--------------------------|-7--7--7--7--7--7--7--7-|

|--------------------------|--------------------------| x 2
|*------------------------*|*------------------------*|
|*------------------------*|*-6--6--6--6--6--6--6--6-*|
|-4--4--4--4--4--4--4--4---|--------------------------|

|--------------------------|--------------------------|
|--------------------------|--------------------------|
|--2--2--2--2--2--2--2--2--|--4--4--4--4--4--4--4--4--|
|--------------------------|--------------------------|

|--------------------------|--------------------------|
|*------------------------*|--------------------------|
|*------------------------*|--2--2--2--2--2--2--2--2--|
|--2--2--2--2--2--2--2--2--|--------------------------|

|--------------------------|--------------------------|
|--------------------------|*------------------------*|
|--4--4--4--4--4--4--4--4--|*------------------------*|
|--------------------------|--2--2--2--2--2--2--2--2--|

|--------------------------|--------------------------|
|--------------------------|--------------------------|
|--2--2--2--2--2--2--2--2--|--4--4--4--4--4--4--4--4--|
|--------------------------|--------------------------|

|--------------------------|--------------------------| x 2
|--------------------------|--------------------------|
|--5--5--5--5--5--5--5--5--|--7--7--7--7--7--7--7--7--|
|--------------------------|--------------------------|

|---------------------|---------------------|--------------------|---------|
|---------------------|---------------------|--------------------|---------|
|--9------8------7----|----6------5----4----|------3------3------|--3------|
|---------------------|---------------------|--------------------|---------|

Chorus
Riff X + Fill 3
Riff X + Fill 3
Riff X + Fill 4

Outro
|--------------------------| x 4
|--------------------------|
|--3--3--3--3--3--3--3--3--|
|--------------------------|

Fill 5

  Visit MetalTabs.com for more metal tablature

bottom separator

Contact Us | Privacy Policy | Disclaimer | Legal Notice
Copyright © 2001-2014 MetalTabs.com. All Rights Reserved.