top separator

Home

Forum

What's New

Submit a Tab

FAQ

Links

Contact Us

Link to Us

MuSpy.com

MetalTabs.com logo

Bands

0-9

A

B

C

D

E

F

G

H

I

J

K

L

M

N

O

P

Q

R

S

T

U

V

W

X

Y

Z

Search

What

Where
 

October Tide - "Infinite Submission" Guitar Tab

Plain Text Version
More October Tide Tabs

Hits: 3591
Rated: 4.50 out of 5 (2 votes)
Updated: 2005-07-21 14:07:34

 

By:

Father Death

sendpm.gif

email.gif

Important note
This tab is available online because we obtained explicit permission from October Tide or their label.


#----------------------------------PLEASE NOTE---------------------------------#
#This file is the author's own work and represents their interpretation of the #
#song. You may only use this file for private study, scholarship, or research. #
#Unless specified otherwise, this is NOT an official tab from the band members.#
#------------------------------------------------------------------------------#

  Visit MetalTabs.com for more metal tablature
  
Band:  OCTOBER TIDE
Album: Rain WIthout End
Song:  Infinite Submission

Transcribed by: Chris Humeniuk
Email: father_death_666@hotmail.com

Tuning: 1 step down (D)

Keys:
 / \ - slide
  h  - hammer on
 ___ - palm mute


INTRO:

|------0--------------------------|
|---------1-----------------------|
|------------/4-4-----------------|
|-----------------------5---------|
|-2----------------3-------3-/5-5-|
|-0-------------------------------| 2x


RIFF A:
(Gtr 1)
|------0--------------------------|
|---------1-----------------------|
|------------/4-4-----------------|
|-----------------------5---------|
|-2----------------3-------3-/5-5-|
|-0-------------------------------|

(Gtr 2)
|------0--------------------------|
|---------1-----------------------|
|------------/4-4-----------------|
|-----------------------5-----4-4-|
|-2------------------------3------|
|-0----------------5--------------| 6x


RIFF Ba:
(Gtr 1)
|-------------------------------------------
|-------------------------------------------
|-------------------------------------------
|-7----------5------5---2-------------------
|-5------5---3----------2-------------------
|-5----------3----------0-------------------

(Gtr 2)
|-7h8----7h8--------7h8---------------------
|-----5------5----------8------7-7~---------
|-------------------------------------------
|-------------------------------------------
|-------------------------------------------
|-------------------------------------------

(Gtr 1)
 -------------------------------------------
 -------------------------------------------
 -------------------------------------------
 -7----------5----------2-------------------
 -5------5---3------5---2-------------------
 -5----------3----------0-------------------

(Gtr 2)
 -7h8----7h8--------7h8---------------------
 -----5------5----------8------7-7~---------
 -------------------------------------------
 -------------------------------------------
 -------------------------------------------
 -------------------------------------------

(Gtr 1)
 ------------------------------0------------
 --------------------------------0----------
 -------------------------------------------
 -7----------5------5---2-------------------
 -5------5---3----------2-------------------
 -5----------3----------0-------------------

(Gtr 2)
 -7h8----7h8--------7h8---------------------
 -----5------5----------8------7-7~---------
 -------------------------------------------
 -------------------------------------------
 -------------------------------------------
 -------------------------------------------

(Gtr 1)
 ----------------------|
 ----------------------|
 ----------------------|
 -7----------5---------|
 -5------5---3------5--|
 -5----------3---------|

(Gtr 2)
 -7h8----7h8-----------|
 -----5------5--\3-3---|
 ----------------------|
 ----------------------|
 ----------------------|
 ----------------------|


RIFF C:

|---------------------|
|---------------------|
|---------------------|
|-2------5\4-4--------|
|-2--2-2-3\2-2--------|
|-0--0-0-3\2-2--------| 8x
     ___


keyboard interlude


POST INT:

|-------------------------------------------
|-------------------------------------------
|-------------------------------------------
|-7----------5------5---2-------------------
|-5------5---3----------2-------------------
|-5----------3----------0-------------------

 -------------------------------------------
 -------------------------------------------
 -------------------------------------------
 -7----------5----------2-------------------
 -5------5---3------5---2-------------------
 -5----------3----------0-------------------

 ------------------------------0------------
 --------------------------------0----------
 -------------------------------------------
 -7----------5------5---2-------------------
 -5------5---3----------2-------------------
 -5----------3----------0-------------------

 -------------------------------------------|
 -------------------------------------------|
 -------------------------------------------|
 -7----------5----------2-------------------|
 -5------5---3------5---2-------------------|
 -5----------3----------0-------------------|


RIFF Bb:
(Gtr 1)
|-------------------------------------------
|-------------------------------------------
|-------------------------------------------
|-7----------5------5---2-------------------
|-5------5---3----------2-------------------
|-5----------3----------0-------------------

(Gtr 2)
|-7h8----7h8--------7h8---------------------
|-----5------5----------8------7-7~---------
|-------------------------------------------
|-------------------------------------------
|-------------------------------------------
|-------------------------------------------

(Gtr 1)
 -------------------------------------------
 -------------------------------------------
 -------------------------------------------
 -7----------5----------2-------------------
 -5------5---3------5---2-------------------
 -5----------3----------0-------------------

(Gtr 2)
 -7h8----7h8--------7h8---------------------
 -----5------5----------8------7-7~---------
 -------------------------------------------
 -------------------------------------------
 -------------------------------------------
 -------------------------------------------

(Gtr 1)
 ------------------------------0------------
 --------------------------------0----------
 -------------------------------------------
 -7----------5------5---2-------------------
 -5------5---3----------2-------------------
 -5----------3----------0-------------------

(Gtr 2)
 -7h8----7h8--------7h8---------------------
 -----5------5----------8------7-7~---------
 -------------------------------------------
 -------------------------------------------
 -------------------------------------------
 -------------------------------------------

(Gtr 1)
 -------------------------------------------|
 -------------------------------------------|
 -------------------------------------------|
 -7----------5----------2-------------------|
 -5------5---3------5---2-------------------|
 -5----------3----------0-------------------|

(Gtr 2)
 -7h8----7h8--------7h8---------------------|
 -----5------5----------8------7-7~------\--|
 -------------------------------------------|
 -------------------------------------------|
 -------------------------------------------|
 -------------------------------------------|


RIFF A - 8x


OUTRO:

|-------------------------------|
|-------------------------------|
|-------------------------------|
|-------------------------------|
|-2-----------------------------|
|-0-----------------------------|

  Visit MetalTabs.com for more metal tablature

bottom separator

Contact Us | Privacy Policy | Disclaimer | Legal Notice
Copyright © 2001-2014 MetalTabs.com. All Rights Reserved.