top separator

Home

Forum

What's New

Submit a Tab

FAQ

Links

Contact Us

Link to Us

MetalTabs.com logo

Bands

0-9

A

B

C

D

E

F

G

H

I

J

K

L

M

N

O

P

Q

R

S

T

U

V

W

X

Y

Z

Search

What

Where
 

Iommi - "Time is Mine [featuring Phil Anselmo]" Guitar Tab

Plain Text Version
More Iommi Tabs

Hits: 4958
Updated: 2005-07-21 14:07:05

 

By:

Father Death

sendpm.gif

email.gif

Important note
We did our best to reach Iommi and ask for their permission to publish this tab. Unfortunately they did not respond to our requests or we could not find a way to contact them. This tab is available online until Iommi tells us to take it down.


#----------------------------------PLEASE NOTE---------------------------------#
#This file is the author's own work and represents their interpretation of the #
#song. You may only use this file for private study, scholarship, or research. #
#Unless specified otherwise, this is NOT an official tab from the band members.#
#------------------------------------------------------------------------------#

  Visit MetalTabs.com for more metal tablature
  
Band:   IOMMI
Album:  Iommi
Song:   Time is Mine

Transcribed by: Chris Humeniuk
Email:  father_death_666@hotmail.com

Tuning: 1/2 step down (Eb)

Keys:
  b  - bend
  r  - release bend
 / \ - slide
 { } - natural harmonix
  p  - pull off
 ___ - palm mute
 < > - pinch harmonix


INTRO:

|-------------------------------------------------------------------------|
|-------------------------------------------------------------------------|
|-------------------------------------------------------------------------|
|-------------------------------------------------------------------------|
|-7-------------------------2--/7-5~--7-------------------------2---------|
|-0--6b-r-6~---7-6-5~--3b-r-0---------0--6b-r-6~---7-6-5~--3b-r-0---------| 2x


VERSE: (light distortion)
(Gtr 1)
|-------------------------------------------------------------------------|
|-------------------------------------------------------------------------|
|-------------------------------------------------------------------------|
|-------------------------------------------------------------------------|
|------------------------------/7-5~--------------------------------------|
|-0--6b-r-6~---7-6-5~--3b-r-0---------0--6b-r-6~---7-6-5~--3b-r-0---------|

(Gtr 2 - w/wah pedal)
|----{12}-----------------------------{12}--------------------------------|
|-{12}-----------------------------{12}-----------------------------------|
|-------------------------------------------------------------------------|
|-------------------------------------------------------------------------|
|-------------------------------------------------------------------------|
|-------------------------------------------------------------------------| 2x


INTRO - 2x


VERSE - 1x


CHORUS:

|------------------------------------------------------------------|
|------------------------------------------------------------------|
|--------------------------------------------------7-9-10--12p10---|
|-9--9\7-9-12-9---12-------------9--9\7-9-12-9---9-5-7--8-------12-|
|-7--7\5-7-10-7---10-12---10--9--7--7\5-7-10-7---7-----------------|
|--------------------10-0--8--7------------------------------------| 2x


INTRO - 1x


VERSE - 2x


INTRO - 1x


CHORUS - 4x


PRE-SOLO:
(Gtr 1)
|---------------------------------------------------------------------|
|---------------------------------------------------------------------|
|---------------------------------------------------------------------|
|-----------3----<3>---<3>--------------------3----<3>---<3>----------|
|-2-2-2--2--3-------<3>---<3>-<2>~--2-2-2--2--3-------<3>---<3>-<2>~--|
|-0-0-0--0--1-----------------------0-0-0--0--1-----------------------|
  _____  _                          _____  _

(Gtr 2)
|-----------11b-------------------------------------------------------|
|---------------------------------------------10b---------------------|
|---------------------------------------------------------------------|
|---------------------------------------------------------------------|
|-2-2-2--2--------------------------2-2-2--2--------------------------|
|-0-0-0--0--------------------------0-0-0--0--------------------------| 2x
  _____  _                          _____  _


UNDER SOLO:

|----------------------------|
|----------------------------|
|----------------------------|
|--------2-----------3-------|
|------2---2-------3---3-3~--|
|-0--0-------1~--1-----------| 4x
  ______         ___   _

INTRO - 1x


CHORUS - 4x


OUTRO:

|----------------------------|
|----------------------------|
|----------------------------|
|-9--------------------------|
|-7--------------------------|
|-0--------------------------|

  Visit MetalTabs.com for more metal tablature

bottom separator

Contact Us | Privacy Policy | Disclaimer | Legal Notice
Copyright © 2001-2014 MetalTabs.com. All Rights Reserved.