top separator

Home

Forum

What's New

Submit a Tab

FAQ

Links

Contact Us

Link to Us

MuSpy.com

MetalTabs.com logo

Bands

0-9

A

B

C

D

E

F

G

H

I

J

K

L

M

N

O

P

Q

R

S

T

U

V

W

X

Y

Z

Search

What

Where
 

Ensiferum - "Lost In Despair" Guitar Tab

Plain Text Version
More Ensiferum Tabs

Hits: 8680
Rated: 3.40 out of 5 (5 votes)
Updated: 2005-10-04 21:44:33

 

By:

Theoldman

sendpm.gif

email.gif

Important note
This tab is available online because we obtained explicit permission from Ensiferum or their label.


#----------------------------------PLEASE NOTE---------------------------------#
#This file is the author's own work and represents their interpretation of the #
#song. You may only use this file for private study, scholarship, or research. #
#Unless specified otherwise, this is NOT an official tab from the band members.#
#------------------------------------------------------------------------------#

  Visit MetalTabs.com for more metal tablature
  
Band:  Ensiferum
Album: Iron
Song:  Lost In Despair

Copyright (c)  Spinefarm 2004
Version 1.0 -  20.6.2005
Version 2.0 -  24.9.2005

Transcribed By: theoldman
Email:          swordbearing@hotmail.com
________________________________________

.  - palm mute           /  - slide up to
\  - slide down to       ~  - vibrato
h  - hammer on           b  - Bend
p  - pull off            Suffixes for bend
t  - tap                 f  - full bend    h - half bend
ph - pinched harmonic    q  - quarter bend t - tap bend
*  - see comment         ^  - Hold bend    r release bend
x  - Stuccatto           ~  - vibrato bend
,  - slight palm mute    () - ghost note, sustained note
"  - tremolo note        <> - Trill

Tuning E A D G B E

Riff 1 (acoustic) (0:00-0:28)
|---------------------------------|
|-------------------------5-------|
|5-------4-------5------------7---|
|----7-------5--------7-----------|
|---------------------------------|
|---------------------------------|



Solo 1 (distortion) (0:29-0:58)
|----------------------------------------------------------------|
|----------------------------------------------------------------|
|5---5---4-5-5------------------9---9---7---9--------------------|
|----------------7------7-----------------------10---9---7---9---|
|----------------------------------------------------------------|
|----------------------------------------------------------------|



Solo 2 (0:59-1:13)
|---------------------------------------------------------------|
|-----------------------------------------------------3---------|
|5---5---4-5-5--------------7---9-------7---5---4---4---5---5-4-|
|----------------7------9---------------------------------------|
|---------------------------------------------------------------|
|---------------------------------------------------------------|



Riff 1 (1:14-1:28)


Solo 1 (1:29-1:57)



Riff 2 (1:58-2:12)
|----------------------------------------------------------------|
|----------------------------------------------------------------|
|----------------------------------------------------------------|
|----------------------------------------------------------------|
|10------9-------7-------7-------10------9-------7-------7-------|
|8---8-8-7---7-7-5---5-5-5---5-5-8---8-8-7---7-7-5---5-5-5---5-5-|
     . .     . .     . .     . .     . .     . .
|----------------------------------------------------------------|
|----------------------------------------------------------------|
|----------------------------------------------------------------|
|10------9-------7-------7---------------------------------------|
|8---8-8-7---7-7-5---5-5-5---5-5-10------9-------7---------------|
|--------------------------------8---8-8-7---7-7-5---------------|
     . .     . .     . .     . .     . .     . .



Riff 3 (acoustic) (2:13-2:27)
|0-------0-------0-------0-------0-------0-------0-------0-------|
|1-------0-------1-------1-------1-------0-------1-------1-------|
|2-------0-------2-------2-------2-------0-------2-------2-------|
|2-------2-------2-------2-------2-------2-------2-------2-------|
|0-------2-------0-------0-------0-------2-------0-------0-------|
|--------0-------------------------------0-----------------------|
 Am      Em      Am      Am      Am      Em      Am      Am

|0-------3-------0-------0-------0-------0-------0-------0-------|
|1-------0-------1-------0-------1-------0-------1-------1-------|
|2-------0-------0-------0-------2-------0-------2-------2-------|
|2-------0-------2-------2-------2-------2-------2-------2-------|
|0-------2-------3-------2-------0-------2-------0-------0-------|
|--------3---------------0---------------0-----------------------|
 Am      G       C       Em      Am      Em      Am      Am


Riff 4 (distortion) (2:28-2:42)
|----------------------------------------------------------------|
|----------------------------------------------------------------|
|----------------------------------------------------------------|
|----------------------------------------------------------------|
|7-------2-------7-------7-------7-------2-------7-------7-------|
|5---5-5-0---0-0-5---5-5-5---5-5-5---5-5-0---0-0-5---5-5-5---5-5-|

|----------------------------------------------------------------|
|----------------------------------------------------------------|
|----------------------------------------------------------------|
|----------------5-----------------------------------------------|
|7-------5-------3---3-3-2-------7-------2-------7-------7-------|
|5---5-5-3---3-3---------0---0-0-5---5-5-0---0-0-5---5-5-5---5-5-|



Riff 5 (2:43-2:56)
|----------------------------------------------------------------|
|----------------------------------------------------------------|
|----------------------------------------------------------------|
|--------------------------------7-------------------------------|
|5-7-7---7-------5-7-----2-------5---5-5-7-------5-------5-------|
|3-5-5---5---5-5-3-5-5-5-0---0-0---------5---5-5-3---3-3-3---3-3-|
             . .     . .     . .     . .     . .             . .
|----------------------------------------------------------------|
|----------------------------------------------------------------|
|----------------------------------------------------------------|
|--------------------------------7---------------9-------9-------|
|5-7-7---7-------5-7-----2-------5---5-5-7-------7---7-7-7-------|
|3-5-5---5---5-5-3-5-5-5-0---0-0---------5---5-5-----------8-7-5-|
             . .     . .     . .     . .     . .


Riff 6 (2:57-3:11)
|----------------------------------------------------------------|
|----------------------------------------------------------------|
|----------------------------------------------------------------|
|------------------5---5---------7-------------------------------|
|5-7---7-7-------5-3---3-2-------5---5-5-----7---5-------5-------|
|3-5---5-5-------3-------0---------------5---5---3---3-3-3---3-3-|
                                     . . .                   . .
|----------------------------------------------------------------|
|----------------------------------------------------------------|
|----------------------------------------------------------------|
|------------------5---5---------7---------------9---------------|
|5-7---7-7-------5-3---3-2-------5---5-5-----7---7---------------|
|3-5---5-5-------3-------0---------------5---5-------------------|
                                     . . .


Solo 1 (3:12-3:26)



Solo 3 (3:27-3:41) (I'm not sure about this)
|--------------------------------------------------------------------|
|----------------------10---12-13-12---------12-10-12----------13-15-|
|9---------7-9-10------------------------------------------9---------|
|--------------------------------------------------------------------|
|--------------------------------------------------------------------|
|--------------------------------------------------------------------|

|12--------10-12-13\-----------12-13-12----12-10-1210----------------|
|------------------------13-15-----------------------13----12\-------|
|-------------------------------------------------------14-----------|
|--------------------------------------------------------------------|
|--------------------------------------------------------------------|
|--------------------------------------------------------------------|



Riff 2 (3:42-3:55)

Riff 3 (3:56-4:03)

Riff 4 (4:04-4:25)

Riff 5 (4:26-4:40)

Riff 6 (4:41-4:55)

Solo 1 (4:56-5:39)



END

  Visit MetalTabs.com for more metal tablature

bottom separator

Contact Us | Privacy Policy | Disclaimer | Legal Notice
Copyright © 2001-2014 MetalTabs.com. All Rights Reserved.