top separator

Home

Forum

What's New

Submit a Tab

FAQ

Links

Contact Us

Link to Us

MetalTabs.com logo

Bands

0-9

A

B

C

D

E

F

G

H

I

J

K

L

M

N

O

P

Q

R

S

T

U

V

W

X

Y

Z

Search

What

Where
 

Iron Monkey - "bad year" Bass Tab

Plain Text Version
More Iron Monkey Tabs

Hits: 2723
Updated: 2005-07-21 13:50:17

 

By:

Severed

sendpm.gif

email.gif

Important note
We did our best to reach Iron Monkey and ask for their permission to publish this tab. Unfortunately they did not respond to our requests or we could not find a way to contact them. This tab is available online until Iron Monkey tells us to take it down.


#----------------------------------PLEASE NOTE---------------------------------#
#This file is the author's own work and represents their interpretation of the #
#song. You may only use this file for private study, scholarship, or research. #
#Unless specified otherwise, this is NOT an official tab from the band members.#
#------------------------------------------------------------------------------#

  Visit MetalTabs.com for more metal tablature
  
Iron Monkey
Bad Year
Our Problem
Earache Records 1999
Adam Turner-Heffer newnoise@hotmail.co.uk
B E A D G or B E A D

Riff 1
------------------------------------------------------
------------------------------------------------------
------------------------------------------------------
------------------------------------------------------
-1-2--0-1-2--0-1-2--0-1-2--0-1-2--0-1-2--0-1-2--1-2~~-

---------------------------------------------------------------------
---------------------------------------------------------------------
--------------------------------------------------------------------- Alternate
--------------------------------------------------------------------- between
-1-2--0-1-2--0-1-2--0-1-2--0-1-2--0-1-2--0-1-2--1-2//6-6-6-6-6-6-6-6- two.

Riff 2
-------------------------------------
-------------------------------------
-------------------------------------
-------------------------------------
-0-0-0-0-0-0-0-0-0-0-0-0-0-0-0-\\6~~-

Riff 3
-------------------------------------
-------------------------------------
-------------------------------------
-------------------------------------
-0-0-0-0-0h3-3-3-3-3-3h5-5-5-5-5-6\\-

-----------------------------------------------
-----------------------------------------------
-----------------------------------------------
-----------------------------------------------
-0-0-0-0-0h3-3-3-3-3-3h5-5-5-5-5-6-6-6-6-7-6-5-

Break
---
---
---
---
-0-

Riff 4 intro
------------------------------
------------------------------
------------------------------
------------------------------
-0---------7*----------7*-----

Riff 4
------------------------------------------------------------------
------------------------------------------------------------------
------------------------------------------------------------------
------------------------------------------------------------------
-7-7-7-7-7-7-7-7-5-6-7-7-7-10-12-12-12-12-10-7-10-7-5//7//5-0//12-

Outro
------------------------------------------------------------------
------------------------------------------------------------------
------------------------------------------------------------------
------------------------------------------------------------------
-7-7-7-7-7-7-7-7-7-7-7-7-7-7-7*--5-5-5-5-5-5-5-5-5-5-5-5-5-5-5-5*-

---------------------------------------
---------------------------------------
---------------------------------------
---------------------------------------
-4-4-4-4-4-4-4-4-4-4-4-4-4-4-4*--3---3-

Order
Riff 1 x2
Riff 2 x4
Riff 1 x2
Riff 2 x4
Riff 3 x2
Riff 1 x2
Riff 2 x4
Riff 3 x2
Break
Riff 3 x2
Riff 4 intro
Riff 4 x8
Outro

Enjoi.

  Visit MetalTabs.com for more metal tablature

bottom separator

Contact Us | Privacy Policy | Disclaimer | Legal Notice
Copyright © 2001-2014 MetalTabs.com. All Rights Reserved.