top separator

Home

Forum

FAQ

Contact Us

Link to Us

MetalTabs.com logo

Bands

0-9

A

B

C

D

E

F

G

H

I

J

K

L

M

N

O

P

Q

R

S

T

U

V

W

X

Y

Z

Ensiferum - "Into Battle" Guitar Tab

Plain Text Version
More Ensiferum Tabs

Hits: 21233
Rated: 4.50 out of 5 (14 votes)
Updated: 2005-07-07 11:50:47

By:

ctninman


#----------------------------------PLEASE NOTE---------------------------------#
#This file is the author's own work and represents their interpretation of the #
#song. You may only use this file for private study, scholarship, or research. #
#Unless specified otherwise, this is NOT an official tab from the band members.#
#------------------------------------------------------------------------------#

  Visit MetalTabs.com for more metal tablature
  
Band:  Ensiferum
Album: Iron
Song:  Into Battle

Copyright (c)  Spinefarm Records, 2004
Version 1.0  June 2005

Transcribed By: Chris Ninman
Email:          ctninman@hotmail.com


.  - palm mute           /  - slide up to
\  - slide down to       ~  - vibrato
h  - hammer on           b  - Bend
p  - pull off            Suffixes for bend
t  - tap                 f  - full bend    h - half bend
ph - pinched harmonic    q  - quarter bend t - tap bend
*  - see comment         ^  - Hold bend    r release bend
x  - Stuccatto           ~  - vibrato bend
,  - slight palm mute    () - ghost note, sustained note
NH  natural harmonic    <> - Trill

Standard Tuning E A D G B E



Intro
6/4                                                   4/4
    |   |   |   |   |   |     |   |   |   |   |   |     |   |   |   |
E||-2-----------------------|-2-----------------------|-----------------|C
B||-----------------5-------|-----------------0---2---|-5---------------|H
G||-4---------------2-------|-4---------------2-------|-2---------------|O
D||-4---------------2-------|-4---------------2-------|-2---------------|R
A||-2---------------4-------|-2---------------4-------|-4---------------|U
E||-2---------------5-------|-2---------------5-------|-5---------------|S


  |   |   |   |     |   |   |   |     |   |   |   |
|---------2-------|---------2-------|-----------------|C
|-3---------------|-5-----------5---|-5-------3---5---|H
|-0-------4-------|-2-------4-------|-2-------0---2---|O
|-0-------4-------|-2-------4-------|-2-------0---2---|R
|-2-------2-------|-4-------2-------|-4-------2---4---|U
|-3-------2-------|-5-------2-------|-5-------3---5---|S


  |   |   |   |
|-2----------------|C
|------------------|H
|-4----------------|O
|-4----------------|R
|-2----------------|U
|-2----------------|S


  |       |       |       |         |       |       |       |
|-------------------------14------|-12--141210-9---10--------------|
|-12--------------15--------------|-----h-p-p------------------12-15|L
|---------------------------------|---------------------------------|E
|---------------------------------|---------------------------------|A
|---------------------------------|---------------------------------|D
|---------------------------------|---------------------------------|
|
|-2-------------------------------|-----------------2---------------|C
|---------------------------------|-5-------------------------------|H
|-4-------------------------------|-2---------------4---------------|O
|-4-------------------------------|-2---------------4---------------|R
|-2-------------------------------|-4---------------2---------------|U
|-2-------------------------------|-5---------------2---------------|S


  |       |       |       |           |       |          |       |
|----------------------14-14-101010|-12---------1214121012------14---|
|-15----------15--14----------------|--------------h-p-p--------------|L
|-----------------------------------|---------------------------------|E
|-----------------------------------|---------------------------------|A
|-----------------------------------|---------------------------------|D
|-----------------------------------|---------------------------------|
|
|-----------------------------------|---------------------------------|C
|-3---------------5-----------------|-2-------------------------------|H
|-4---------------2-----------------|-2-------------------------------|O
|-4---------------2-----------------|-2-------------------------------|R
|-2---------------4-----------------|-4-------------------------------|U
|-2---------------5-----------------|-5-------------------------------|S


  |       |       |       |         |       |       |       |
|-14b15---r14-12-14----------10--|-12----12/14-12-14-----10-101010|
|---------------------------------|----------------------------------|L
|---------------------------------|----------------------------------|E
|---------------------------------|----------------------------------|A
|---------------------------------|----------------------------------|D
|---------------------------------|----------------------------------|
|
|---------------------------------|----------------------------------|C
|-0---------------3---------------|-2---------------3-------2--------|H
|-0---------------4---------------|-2---------------4-------2--------|O
|-0---------------4---------------|-2---------------4-------2--------|R
|-2---------------2---------------|-4---------------2-------4--------|U
|-3---------------2---------------|-5---------------2-------5--------|S


  |       |       |         |         |   |   |   |
|-12----------12--10-101410-9--9129-|-7----------------|
|----------------------h-p------h-p-|------------------|L
|-----------------------------------|------------------|E
|-----------------------------------|------------------|A
|-----------------------------------|---------\pick----|D
|-----------------------------------|---------\slide---|
|
|-----------------------------------|------------------|C
|-2---------------3---------2-------|-0----------------|H
|-2---------------0---------2-------|-4----------------|O
|-2---------------0---------2-------|-4----------------|R
|-4---------------2---------4-------|-2----------------|U
|-5---------------3---------5-------|-2----------------|S


Riff 1
  |      |     |     |        |        |       |      |
|---------------------------|----------------------------------|
|---------------------------|----------------------------------|G
|--------------------11-----|-9---11-9-7---6---7------\--4---7-|T
|-9---99999999912-----------|-----h--p-p-----------------------|R
|---------------------------|----------------------------------|1
|---------------------------|----------------------------------|
|     .........
|---------------------------|----------------------------------|
|---------------------------|----------------------------------|G
|---------------------------|----------------------------------|T
|-9-------------------------|-7----------------9---------------|R
|-9-------------------------|-7----------------9---------------|2
|-7-------------------------|-5----------------7---------------|


  |     |     |       |         |       |       |       |
|-----------------------------|---------------------------------|
|-----------------------------|---------------------------------|G
|-7--7777777776---/11-11----7-|-9---9---9--911979-------11------|T
|-----------------------------|-------------h-pph---------------|R
|-----------------------------|---------------------------------|1
|-----------------------------|---------------------------------|
|    .........
|-----------------------------|---------------------------------|
|-----------------------------|---------------------------------|G
|-----------------------------|---------------------------------|T
|-9-----------4-------7-------|-7---------------7-----------7---|R
|-9-----------4-------5-------|-7---------------7-----------7---|2
|-7--7777777772---222-5---555-|-5-----------555-5-----------5---|
     .........    ...     ...               ...

  |         |         |       |           |      |      |      |
|---------------------------------------|------------------------------|
|---------------------~---~---~---------|------------------------------|G
|-12--12121212--12119-11--11--11--------|-9--999-11---9-11-----7---777-|T
|-----------------p-p-------------121212|------------------------------|R
|---------------------------------------|------------------------------|1
|---------------------------------------|------------------------------|
|
|---------------------------------------|------------------------------|
|---------------------------------------|------------------------------|G
|-9---------------9---------------------|----------------------7-------|T
|-9---------------9---9--------------9--|-7----------7--9------7-------|R
|-7---7-7-7-7-7-7-7---9--------------9--|-7----------7--7------5-------|2
|---------------------7--7-7-7-7-7-7-7--|-5--555555-5--7--777---------|
      ...........        ...........         .......       ...

  |       |       |       |         |   |   |   |
|---------------------------------|---------N.H.----|
|---------------------------------|-~-------5-------|G
|-9---9---9---999-7-7117-6---696-|-4-------~-with--|T
|---------------------h-p------hp-|---------~-bar---|R
|---------------------------------|-----------------|1
|---------------------------------|-----------------|
|
|---------------------------------|-----------------|
|---------------------------------|-----------------|G
|---------------------------------|-----------------|T
|-7-----------7---5-------7-------|-9---------------|R
|-7-----------7---5-------7-------|-9---------------|2
|-5----555555-5---3---333-5---555-|-7---------------|
                                           end Riff 1

Riff 2 (2 times)
  |             |             |             |          |
|----------------------------------------------------|------------------
|----------------------------------------------------|------------p--p--
|--------h--h----------hh-----------h--h---11---11--|-12-12-12-12-11-9-
|-9-9-9-9-11-12-9-9-9-9-11-12-9-9-9-9-11-12----------|------------------
|----------------------------------------------------|------------------
|----------------------------------------------------|------------------
| . . .         . . .         . . .                    .  .  .
|----------------------------------------------------|------------------
|----------------------------------------------------|------------------
|----------------------------------------------------|------------------
|-------------------------------------------7----7---|------------h-h---
|--------h-h-----------h-h-----------h-h----5----5---|-7--7--7--7--9-10-
|-7-7-7-7-9-10--7-7-7-7-9-10--7-7-7-7-9-10-----------|------------------
  . . .         . . .         . . .                    .  .  .

  |               |           |        |             |
|------------------------------------|-----------------------------
|------------p-p---------p-p---------|-----------------------------
|-11-11-11-11-9-7-9-9-9-9-7-6--------|--------h--h----------h--h---
|-----------------------------9---9--|-9-9-9-9-11-12-9-9-9-9-11-12-
|------------------------------------|-----------------------------
|------------------------------------|-----------------------------
| .  .  .         . . .                . . .         . . .
|------------------------------------|-----------------------------
|------------------------------------|-----------------------------
|-----------------------------4---4--|-----------------------------
|------------p-p---------p-p--4---4--|-----------------------------
|--5--5--5--5-4-2-4-4-4-4-2-0-2---2--|--------h-h-----------h-h----
|------------------------------------|-7-7-7-7-9-10--7-7-7-7-9-10-
|  .  .  .        . . .                . . .         . . .

  |             |          |             |           |           |
|------------------------|---------------------------------------------|
|------------------------|--------h--h----------p-p---------p-p--------|G
|--------h--h---11---11--|-9-9-9-9-11-12-7-7-7-7-6-4-6-6-6-6-4-2-4--4--|T
|-9-9-9-9-11-12----------|---------------------------------------------|R
|------------------------|---------------------------------------------|1
|------------------------|---------------------------------------------|
| . . .                    . . .         . . .       . . .
|------------------------|---------------------------------------------|
|------------------------|---------------------------------------------|G
|------------------------|---------------------------------------4--4--|T
|---------------7----7---|--------h-h-----------p-p---------p-p--4--4--|R
|--------h-h----5----5---|-7-7-7-7-9-10--5-5-5-5-4-2-4-4-4-4-2-0-2--2--|2
|-7-7-7-7-9-10-----------|---------------------------------------------|
  . . .                    . . .         . . .       . . .     end Riff 2

Riff 3
  |       |       |       |         |       |       |       |
|---------------------------------|---------------------------------|G
|---------------------------------|---------------------------------|T
|---------4---------------2-------|---------4---------------2-------|R
|-4-------4-------4-------2-------|-4-------4-------4-------2-------|1
|-5-------5---555-5-------4---444-|-5-------5---555-5-------4---444-|&
|-7---777---------7---777---------|-7---777---------7---777---------|2
      ...     ...     ...     ...       ...     ...     ...     ...

  |       |       |       |         |       |       |       |
|---------------------------------|---------------------------------|G
|---------------------------------|---------------------------------|T
|---------2-------4-------2-------|-4-----------------------4---2---|R
|-2-------2-------4-------2-------|-4-----------------------4---2---|1
|-4-------4---444-5---555-4---444-|-2---222-222-222-222-222-2---0---|&
|-5---555-------------------------|---------------------------------|2
      ...     ...     ...     ...       ...................

  |       |       |       |         |       |       |       |
|---------------------------------|---------------------------------|G
|---------------------------------|---------------------------------|T
|---------4---------------2-------|---------4---------------2-------|R
|-4-------4-------4-------2-------|-4-------4-------4-------2-------|1
|-5-------5---555-5-------4---444-|-5-------5---555-5-------4---444-|&
|-7---777---------7---777---------|-7---777---------7---777---------|2
      ...     ...     ...     ...       ...     ...     ...     ...

  |       |       |       |         |       |       |       |
|---------------------------------|---------------------------------|G
|---------------------------------|---------------------------------|T
|---------2-------4-------2-------|-4-----------------------4---2---|R
|-2-------2-------5-------2-------|-4-----------------------4---2---|1
|-4-------4---444-7---777-4---444-|-2---222-222-222-222-222-2---0---|&
|-5---555-------------------------|---------------------------------|2
      ...     ...     ...     ...       ...................

  |       |       |       |         |       |       |       |
|---------------------------------|---------------------------------|G
|---------------------------------|---------------------------------|T
|-4-------4---------------4---2---|-4-------7-------4---------------|R
|-4-------4---------------4---2---|-4-------5-------4-----------7---|1
|-2---222-2-----------222-2---0---|-2---222-5---555-5-----------7---|&
|---------------------------------|-----------------------------5---|2
      ...             ...               ...     ...

  |       |       |       |         |       |       |       |
|---------------------------------|---------------------------------|G
|---------------------------------|---------------------------------|T
|---------------------------------|---------------------------------|R
|-5-----------0---0---------------|-2---------------7-------2-------|1
|-5-----------0---2---------------|-4---------------5---4-2-0-------|&
|-3---333-333-2---3---333-333-333-|-5---555-555-555-----------------|2
      .......         ...........       ...........     . .

  |       |       |       |         |       |       |       |
|---------------------------------|---------------------------------|G
|---------------------------------|---------------------------------|T
|---------4---------------2-------|---------4-------4-------2-------|R
|-4-------4-------4-------2-------|-4-------4-------4-------2-------|1
|-5-------5---555-5-------4---444-|-5-------5---555-2-------0-------|&
|-7---777---------7---777---------|-7---777-------------------------|2
      ...     ...     ...     ...       ...     ...

  |       |       |       |         |       |       |       |
|---------------------------------|---------------------------------|G
|---------------------------------|---------------------------------|T
|---------------------------------|---------------------------------|R
|-5-------------------------------|-----------------0---2-4-2-------|1
|-5-----------0---2-------2---2-2-|-4---4-4-4---4-4-2-------4-------|&
|-3---3-3-3---2---3-------3---3-3-|-5---5-5-5---5-5-3-------5-------|2
      . . .   .               . .       . . .   . .     . .

  |       |       |       |         |       |       |       |
|---------------------------------|---------------------------------|G
|---------------------------------|---------------------------------|T
|---------------------------------|---------------------------------|R
|-5-------------------------------|-----------------4-------2-------|1
|-5-----------0---2-------2---2-2-|-4---4-4-4---4-4-5-------4-------|&
|-3---3-3-3---2---3-------3---3-3-|-5---5-5-5---5-5-5-------5-------|2
      . . .   .               . .       . . .   . .         end riff 3

Riff 4
  |             |             |             |        |     |
|--------------------------------------------------|----------------
|--------------------------------------------------|----------------
|--------h--h----------hh-----------h--h---11-----|-----------h-h--
|-9-9-9-9-11-12-9-9-9-9-11-12-9-9-9-9-11-12--------|-9-----7-7-911-
|--------------------------------------------------|----------------
|--------------------------------------------------|----------------
| . . .         . . .         . . .
|--------------------------------------------------|----------------
|--------------------------------------------------|----------------
|-------------------------------------------6------|----------------
|-4-4-4-4-4-4--4-4-4-4-4--4--4-4-4-4-44----------|----------------
|--------------------------------------------------|-2--------------
|--------------------------------------------------|-------2--------
  .......................................

  |        |       |             |             |             |
|----------------|--------------------------------------------------|
|-----p-p--------|--------------------------------------------------|G
|-7--7-6-4-6-----|--------h--h----------hh-----------h--h---11-----|T
|----------------|-9-9-9-9-11-12-9-9-9-9-11-12-9-9-9-9-11-12--------|R
|----------------|--------------------------------------------------|1
|----------------|--------------------------------------------------|
|                  . . .         . . .         . . .
|----------------|--------------------------------------------------|
|----------------|--------------------------------------------------|G
|----------------|--------------------------------------------------|T
|----------------|-4-4-4-4-4-4--4-4-4-4-4--4--4-4-4-4-44---7------|R
|-5--------------|--------------------------------------------------|2
|----------2-----|--------------------------------------------------|
                   .......................................
6/4
  |       |       |       |       |       |
|-------------------------------------------------|
|-------------hh----------------------------------|G
|-9---999-7-7911-6-----------7---6---------------|T
|-----------------------------------------7-------|R
|-------------------------------------------------|1
|-------------------------------------------------|
|
|-------------------------------------------------|
|-------------------------------------------------|G
|-------------------------------------------------|T
|-----------------4-------------------------------|R
|-2-------5-------4-------------------------------|2
|-----------------2---------------555-555-222-222-|
                                  ...............
                                          end riff 4

Riff 5 (chorus)
4/4
  |     |     |     |         |       |       |       |
|---------------------------|----------------------------------|G
|---------------------------|----------------------------------|T
|---------------------------|----------------------------------|R
|-9-------------------------|-7----------------9---------------|1
|-9-------------------------|-7----------------9---------------|&
|-7-------------------------|-5----------------7---------------|2


  |       |       |       |         |       |       |       |
|---------------------------------|---------------------------------|G
|---------------------------------|---------------------------------|T
|-------------------------7-------|---------------------------------|R
|-9---------------4-------7-------|-7---------------7-----------7---|1
|-9---------------4-------5-------|-7---------------7-----------7---|&
|-7--777-777-777-2---222-5---555-|-5-----------555-5-----------5---|2
      ...........     ...     ...               ...

  |       |       |       |         |       |       |       |
|---------------------------------|---------------------------------|G
|---------------------------------|---------------------------------|T
|-9------------9------------------|-------------------------7-------|R
|-9------------9---9----------9---|-7-----------7---9-------7-------|1
|-7---777-777--7---9----------9---|-7-----------7---7-------5-------|&
|------------------7--777-777-7---|-5--555-555-5---7---777---------|2
     ........         .......          ........         ...

  |       |       |       |
|---------------------------------|G
|---------------------------------|T
|---------------------------------|R
|-7-----------7---5-------7-------|1
|-7-----------7---5-------7-------|&
|-5---555-555-5---3---333-5-------|2
      .......         ... end riff 5

Vocals during chorus
-----------------------------------|----------------------------|
-----------------------------------|----------------------------|
-----------------------------------|----------------------------|
-----------------------------9--9--|--9---9-----11--12----16----|
-----------------------------14-14-|--14--14----12--14----14----|
-----------------------------------|----------------------------|



------------------------------|------------------------------|
------------------------------|------------------------------|
------------------------------|------------------------------|
--14----12--11--12------9--11-|--12------12--11---16-16---12-|
--12----12--12--14------14-14-|--14------14--16---17-17---12-|
------------------------------|------------------------------|



--------------------------|--------------------------------|
--------------------------|--------------------------------|
--9------------9--11---11-|--12---12-12----11--11--11h7--7-|
---------------11-12---12-|--14---14-14----12--12-12h9--9-|
--12----------------------|--------------------------------|
--------------------------|--------------------------------|



---------------------------------|---------------------------------|---|
---------------------------------|---------------------------------|---|
--9---9-11---9-11---7--7---7--7--|--9----9--9---9---7-7-7----------|---|
--9---9-11---9-12---12-12--12-12-|--11---11-11--11--9-9-9--11---7--|-9-|
---------------------------------|-------------------------12---12-|-14|
---------------------------------|---------------------------------|---|
                                                              end vocals

Riff 2b (2 times)
  |             |             |             |          |
|----------------------------------------------------|------------------
|----------------------------------------------------|------------p--p--
|--------h--h----------hh-----------h--h---11---11--|-12-12-12-12-11-9-
|-9-9-9-9-11-12-9-9-9-9-11-12-9-9-9-9-11-12----------|------------------
|----------------------------------------------------|------------------
|----------------------------------------------------|------------------
| . . .         . . .         . . .                    .  .  .
|----------------------------------------------------|------------------
|----------------------------------------------------|------------------
|----------------------------------------------------|------------------
|-------------------------------------------7----7---|------------h-h---
|--------h-h-----------h-h-----------h-h----5----5---|-7--7--7--7--9-10-
|-7-7-7-7-9-10--7-7-7-7-9-10--7-7-7-7-9-10-----------|------------------
  . . .         . . .         . . .                    .  .  .


  |               |           |        |             |
|------------------------------------|-----------------------------
|------------p-p---------p-p---------|-----------------------------
|-11-11-11-11-9-7-9-9-9-9-7-6--------|--------h--h----------h--h---
|-----------------------------9---9--|-9-9-9-9-11-12-9-9-9-9-11-12-
|------------------------------------|-----------------------------
|------------------------------------|-----------------------------
| .  .  .         . . .                . . .         . . .
|------------------------------------|-----------------------------
|------------------------------------|-----------------------------
|-----------------------------4---4--|-----------------------------
|------------p-p---------p-p--4---4--|-----------------------------
|--5--5--5--5-4-2-4-4-4-4-2-0-2---2--|--------h-h-----------h-h----
|------------------------------------|-7-7-7-7-9-10--7-7-7-7-9-10-
  .  .  .         . . .                . . .         . . .
                                                           *2nd time only
  |             |          |             |           |            |  *
|------------------------|------------------------------------------N.H.|
|------------------------|----------p-p---------h-h----p-p---p-p-----5~-|G
|--------h--h---11---11--|-121212-1211-9-7-7-7-7-911-11-9-7-9-7-6-------|T
|-9-9-9-9-11-12----------|----------------------------------------9-----|R
|------------------------|----------------------------------------------|1
|------------------------|----------------------------------------------|
| . . .                    . . .         . . .
|------------------------|----------------------------------------------|
|------------------------|----------------------------------------------|G
|------------------------|----------------------------------------4--4--|T
|---------------7----7---|--------h-h-----------p-p---------p-p--4--4--|R
|--------h-h----5----5---|-7-7-7-7-9-10--5-5-5-5-4-2-4-4-4-4-2-0--2--2--|2
|-7-7-7-7-9-10-----------|----------------------------------------------|
  . . .                    . . .         . . .       . . .     end Riff 2b

Riff 6 (2 times)
  |       |       |       |         |       |       |       |
|---------------------------------|---------------------------------|G
|---------------------------------|---------------------------------|T
|---------4-------7-------2-------|-2-------6-------4-------2---2---|R
|-4-------4-------9-------2-------|-2-------7-------4-------2---2---|1
|-5-------5---555-5---555-4---444-|-4-------4---444-5---555-2---4---|&
|-7---777-------------------------|-5---555-----------------5---5---|2
      ...     ...     ...     ...       ...     ...     ...


  |       |       |       |         |       |       |       |
|---------------------------------|---------------------------------|G
|---------------------------------|-------------------------5-------|T
|---------4-------7-------2-------|-4-------7-------6-------4-------|R
|-4-------4-------9-------2-------|-4-------9-------7-------2-------|1
|-5-------5---555-5---555-4---444-|-5---555-5---555-0---000-0---000-|&
|-7---777-------------------------|---------------------------------|2
      ...     ...     ...     ...       ...     ...     ...     ...
                                                               -----|G
                                                               -----|T
                                                        second -----|R
                                                          time -----|1
                                                               -----|&
                                                             E -000-|2
                                                            end riff 6

Riff 7
  |       |       |       |         |       |       |       |
|---------------------------------|---------------------------------|G
|---------------------------------|---------------------------------|T
|---------------------------------|---------------------------------|R
|-2---2-------2---2---2-------2---|-2---2-------2---2---2-------2---|1
|-2---2-------2---2---2-------2---|-2---2-------2---2---2-------2---|&
|-0---0---0-0-0---0---0---0-0-0---|-0---0---0-0-0---0---0---0-0-0---|2
          . .             . .               . .             . .

  |       |       |       |         |       |       |       |
|---------------------------------|---------------------------------|G
|---------------------------------|---------------------------------|T
|---------------------------------|---------------------------------|R
|-2---2-------2---2---2-----------|---------------------------------|1
|-2---2-------2---2---2-----------|---------------------------------|&
|-0---0---0-0-0---0---0---0-0-0-0-|-0-0-0-------0-0-0-0---0-12\-----|2
          . .             . . . .   . . .       . . . .   .

  |       |       |       |         |       |       |       |
|---------------------------------|---------------------------------|
|---------------------------------|---------------------------------|G
|-------------------------4-------|---------------------------------|T
|-2---2-------4---5-------4-------|-2---2-------4---5-------7---9---|R
|-2---2-------4---5-------5-------|-2---2-------4---5-------5---9---|1
|-0---0---0-0-2---3---0-0---------|-0---0---0-0-2---3---0-0-5---7---|
|         . .         . .                   . .         . .
|---------------------------------|---------------------------------|
|---------------------------------|---------------------------------|G
|---------------------------------|---------------------------------|T
|-2---2-------4---5-------9-------|-2---2-------4---5-------7---9---|R
|-2---2-------4---5-------9-------|-2---2-------4---5-------5---9---|2
|-0---0---0-0-2---3---0-0-7-------|-0---0---0-0-2---3---0-0-5---7---|
          . .         . .                   . .         . .

  |       |       |       |         |       |       |       |   ~
|---------------------------------|-----------------------------12--|
|---------------------------------|-----------------------------N.H.|G
|-------------------------4-------|---------------------------------|T
|-2---2-------4---5-------4-------|-2---2-------4---5---------------|R
|-2---2-------4---5-------5-------|-2---2-------4---5---------------|1
|-0---0---0-0-2---3---0-0---------|-0---0---0-0-2---3---0-0---------|
|         . .         . .                   . .         . .
|---------------------------------|---------------------------------|
|---------------------------------|---------------------------------|G
|---------------------------------|---------------------------------|T
|-2---2-------4---5-------9-------|-2---2-------4---5-------7---2---|R
|-2---2-------4---5-------9-------|-2---2-------4---5-------5---2---|2
|-0---0---0-0-2---3---0-0-7-------|-0---0---0-0-2---3---0-0-5---0---|
          . .         . .                   . .         . .

  |       |       |       |         |       |       |       |
|---------------------------------|---------------------------------|
|---------------------------------|---------------------------------|G
|-------------------------4-------|---------------------------------|T
|-------------4---5-------4-------|-2---2-------4---7-------5-------|R
|-------------4---5-------5-------|-2---2-------4---5-------5-------|1
|---------0-0-2---3---0-0---------|-0---0---0-0-2---5---0-0-3---0-0-|
|         . .         . .                   . .         . .     . .
|---------------------------------|---------------------------------|
|---------------------------------|---------------------------------|G
|---------------------------------|---------------------------------|T
|-------------4---5-------9-------|-2---2-------4---7-------5-------|R
|-------------4---5-------9-------|-2---2-------4---5-------5-------|2
|-0-0-0---0-0-2---3---0-0-7-------|-0---0---0-0-2---5---0-0-3---0-0-|
  . . .   . .         . .                   . .         . .     . .

  |       |       |       |         |       |       |       |
|---------------------------------|---------------------------------|
|---------------------------------|---------------------------------|G
|-------------------------4-------|---------------------------------|T
|-------------4---5-------4-------|-2---2-------4---5-------7---9---|R
|-------------4---5-------5-------|-2---2-------4---5-------5---9---|1
|-0-0-0---0-0-2---3---0-0---------|-0---0---0-0-2---3---0-0-5---7---|
| . . .   . .         . .                   . .         . .
|---------------------------------|---------------------------------|
|---------------------------------|---------------------------------|G
|---------------------------------|---------------------------------|T
|-------------4---5-------9-------|-2---2-------4---5-------7---9---|R
|-------------4---5-------9-------|-2---2-------4---5-------5---9---|2
|-0-0-0---0-0-2---3---0-0-7-------|-0---0---0-0-2---3---0-0-5---7---|
  . . .   . .         . .                   . .         . .

Under lead
  |      |      |      |        |      |      |      |
|-0-0000-0-0000-0-0000-0-0000-|-0-0000-0-0000-0-0000-0-0000-|A
|-5-5555-5-5555-3-3333-3-3333-|-5-5555-5-5555-3-3333-5-5555-|C
|-4-4444-4-4444-4-4444-4-4444-|-4-4444-4-4444-4-4444-4-4444-|O
|-5------5------4------7------|-5------5------7------4------|U
|-----------------------------|-----------------------------|S
|-----------------------------|-----------------------------|T
|
|-----------------------------|-----------------------------|G
|-----------------------------|-----------------------------|T
|-----------------------------|-----------------------------|R
|-2---------------------------|-----------------------------|1
|-2---------------------------|-----------------------------|&
|-0---------------------------|-----------------------------|2



  |      |      |      |        |      |      |      |
|-0-0000-0-0000-0-0000-0-0000-|-0-0000-0-0000-0-0000-0--0---|A
|-5-5555-5-5555-3-3333-3-3333-|-3-3333-3-3333-5-5555-5--0---|C
|-4-4444-4-4444-4-4444-4-4444-|-4-4444-4-4444-4-4444-4--0---|O
|-5------5------4------7------|-7------7------4------2--2---|U
|-----------------------------|-----------------------------|S
|-----------------------------|-----------------------------|T


  |      |      |      |        |      |      |      |
|-0-0000-0-0000-0-0000-0-0000-|-0-0000-0-0000-0-0000-0-0000-|A
|-5-5555-5-5555-3-3333-3-3333-|-5-5555-5-5555-3-3333-5-5555-|C
|-4-4444-4-4444-4-4444-4-4444-|-4-4444-4-4444-4-4444-4-4444-|O
|-5------5------4------7------|-5------5------7------4------|U
|-----------------------------|-----------------------------|S
|-----------------------------|-----------------------------|T



  |      |      |      |           |      |      |      |
|-0-0000-0-0000-0-0000-0-0000-|A |-----------------------------|G
|-5-5555-5-5555-3-3333-3-3333-|C |-----------------------------|T
|-4-4444-4-4444-4-4444-4-4444-|O |--------7--------------------|R
|-5------5------4------7------|U |-2------7------9------9--9---|1
|-----------------------------|S |-2------5------9------7--7---|&
|-----------------------------|T |-0------5------7--777-0--0---|2



  |      |      |      |        |      |      |      |
|-----------------------------|-----------------------------|G
|-----------------------------|-----------------------------|T
|---------------4------7------|---------------7------4------|R
|-2------2------4------7------|-2------2------7------4------|1
|-2------2------2-2222-5-5555-|-2------2------5-5555-2-2222-|&
|-0-0000-0-0000---------------|-0-0000-0-0000---------------|2


  |      |      |      |        |      |      |      |
|-----------------------------|-----------------------------|G
|-----------------------------|-----------------------------|T
|---------------4------7------|-5-------------2-------------|R
|-2------2------4------7------|-5-------------2------7--7---|1
|-2------2------2-2222-5-5555-|-3---------333-0-0000-5-5---|&
|-0-0000-0-0000---------------|-----------------------------|2


  |      |      |      |        |      |      |      |
|-----------------------------|-----------------------------|G
|-----------------------------|-----------------------------|T
|---------------4------7------|---------------7------4------|R
|-2------2------4------7------|-2------2------7------4------|1
|-2------2------2-2222-5-5555-|-2------2------5-5555-2-2222-|&
|-0-0000-0-0000---------------|-0-0000-0-0000---------------|2


  |      |      |      |        |      |      |      |
|-----------------------------|-----------------------------|G
|-----------------------------|-----------------------------|T
|---------------4------7------|-7------7------4-------------|R
|-2------2------4------7------|-7------7------4------2--2---|1
|-2------2------2-2222-5-5555-|-5-5555-5-5555-2-2222-2-2---|&
|-0-0000-0-0000---------------|----------------------0--0---|2


  |      |      |      |        |      |      |      |
|-----------------------------|-----------------------------|G
|-----------------------------|-----------------------------|T
|-----------------------------|-----------------------------|R
|-2-----------------------2---|-----------------------------|1
|-2-------------2--542-0------|-----------------------------|&
|-0-0000-2-2333---------------|---0000-2-2333-5--555-1--135-|2
                                                        ...

  |      |      |      |        |      |       |       |
|-----------------------------|------------------------------|
|-----------------------------|------------------------------|G
|-----------------------------|------------------------------|T
|-------------------------7---|-5------555-999-777-444-5-----|R
|----------------------5--5---|-5----------------------------|1
|---0000-2-2333-5--555-3--5---|-3----------------------------|
|
|-----------------------------|------------------------------|
|-----------------------------|------------------------------|G
|-----------------------------|------------------------------|T
|-------------------------7---|-5------222-555-444-000-2-----|R
|----------------------5--5---|-5----------------------------|2
|---0000-2-2333-5--555-3--5---|-3----------------------------|


  |      |      |      |        |      |      |      |
|-----------------------------|-----------------------------|G
|-----------------------------|-----------------------------|T
|-----------------------------|-------------------pp-----pp-|R
|-2-----------------------2---|---2222-2-2-2--5-5542-4-4420-|1
|-2-------------2--542-0------|-----------------------------|&
|-0-0000-2-2333---------------|-----------------------------|2


  |      |     |      |        |      |      |      |
|----------------------------|-----------------------------|G
|----------------------------|-----------------------------|T
|----------------------------|---------------4------5--7---|R
|-2------------7------5------|-7------5------4------5--7---|1
|--------------5------5------|-7------5------2-2222-3--5---|&
|----000-2--3--5--555-3--333-|-5------3-3333---------------|2


  |      |      |      |        |     |     |     |
|-----------------------------|--------------------------|G
|-----------------------------|--------------------------|T
|-----------------------------|--------------------------|R
|-----------------------------|-5--7--9-----5-----2------|1
|-----------------------------|-5--7--9-----5-----2------|&
|-000-0-------------------000-|-3--5-7-----3-----0------|2

                                                3/4
  |      |      |      |        |   |   |   |     |   |   |
|-----------------------------|-----------------|-------------|G
|-----------------------------|-----------------|-------------|T
|-----------------------------|-5---4-------2---|-----4-------|R
|-----------------------------|-5---4---2---2---|-5---4---2---|1
|-----------------------------|-3---2---2---0---|-5---2---2---|&
|-000-0-------------------000-|---------0-------|-3-------0---|2

4/4
  |      |      |      |        |     |     |     |
|-----------------------------|--------------------------|G
|-----------------------------|--------------------------|T
|-----------------------------|--------------------------|R
|-----------------------------|-5--7--9-----5-----2------|1
|-----------------------------|-5--7--9-----5-----2------|&
|-000-0-----000-000-0-----000-|-3--5-7-----3-----0------|2


  |      |      |      |        |   |   |   |
|-----------------------------|-----------------|G
|-----------------------------|-----------------|T
|-----------------------------|-5---4-------2---|R
|-----------------------------|-5---4---2---2---|1
|-----------------------------|-3---2---2---0---|&
|-000-0-----000-000-0-----000-|---------0-------|2


  |     |     |     |     |     |
|-------------------------------------|G
|-------------------------------------|T
|-------4-----------------------------|R
|-5-----4-----2-2-2-2-2-2-2-----------|1
|-5-----2-----2-2-2-2-2-2-2-----------|&
|-3-----------0-0-0-0-0-0-0-----------|2


  |     |     |     |        |     |      |      |
|--------------------------|---------------------------|G
|--------------------------|---------------------------|T
|--------------------------|--------------7------------|R
|--------------------------|-5------------7------5--5--|1
|-2-----------2------------|-5------------5-5555-5--5--|&
|-0-00-00000000-00-0000000-|-3-33-3333333--------3--3--|2


|     |     |     |        |     |      |      |
|--------------------------|---------------------------|G
|--------------------------|---------------------------|T
|--------------------------|--------------7------------|R
|--------------------------|-5------------7------5--2--|1
|-2-----------2------------|-5------------5-5555-5--2--|&
|-0-00-00000000-00-0000000-|-3-33-3333333--------3--0--|2


  |      |      |      |        |      |      |      |
|-----------------------------|----------------------------|G
|-----------------------------|----------------------------|T
|-----------------------------|----------------------3-----|R
|-5-------------5-------------|-3------3------3------3--3--|1
|-5-------------5-------------|-3------3------3------1--3--|&
|-3-3356-6-6653-3-3356-6-6653-|-1-1111-1-1111-1-1111----1--|2


  |      |      |      |        |      |      |      |
|-----------------------------|----------------------------|G
|-----------------------------|----------------------------|T
|-----------------------------|----------------------------|R
|--------5-----------5--------|-3------3------3------5-----|1
|--------5-----------5--------|-3------3------3------5-----|&
|-6-6653-3-3-333-333-3-6-6653-|-1-1111-1-1111-1-1111-3-----|2


Lead
(3.33)
|--3h2h0-0--0-3h2h0-0--0----------5-3----------|
|------------------------7h5h3-3-------5-7h5h3-|
|----------------------------------------------|
|----------------------------------------------|
|----------------------------------------------|
|----------------------------------------------|


|--3h2h0-0--0-3h2h0-0--0-------0h2h5-3h2h0------|
|------------------------7h5h3-------------3--3-|
|-----------------------------------------------|
|-----------------------------------------------|
|-----------------------------------------------|
|-----------------------------------------------|


|--3h2h0-0--0-3h2h0-0--0----------5-3----------|
|------------------------7h5h3-3-------5-7h5h3-|
|----------------------------------------------|
|----------------------------------------------|
|----------------------------------------------|
|----------------------------------------------|


|--3h2h0-2h3h5-7--3-5h3h2-0h2h3-5h3h2------|
|-------------------------------------5----|
|------------------------------------------|
|------------------------------------------|
|------------------------------------------|
|------------------------------------------|

(3.43)
|--3h2h0-0--0-3h2h0-0--0----------5-3----------|
|------------------------7h5h3-3-------5-7h5h3-|
|----------------------------------------------|
|----------------------------------------------|
|----------------------------------------------|
|----------------------------------------------|


|--3h2h0-0--0-3h2h0-0--0-------0h2h5-3h2h0------|
|------------------------7h5h3-------------3--3-|
|-----------------------------------------------|
|-----------------------------------------------|
|-----------------------------------------------|
|-----------------------------------------------|


|--3h2h0-0--0-3h2h0-0--0----------5-3----------|
|------------------------7h5h3-3-------5-7h5h3-|
|----------------------------------------------|
|----------------------------------------------|
|----------------------------------------------|
|----------------------------------------------|


|--3h2h0-2h3h5-7--3-5h3h2-0h2h3-5h3h2-3--2--|
|-------------------------------------------|
|-------------------------------------------|
|-------------------------------------------|
|-------------------------------------------|
|-------------------------------------------|

(3.52)
|--3h2h0-0--0-3h2h0-0--0----------5-3----------|
|------------------------7h5h3-3-------5-7h5h3-|
|----------------------------------------------|
|----------------------------------------------|
|----------------------------------------------|
|----------------------------------------------|


|--3h2h0-0--0-3h2h0-0--0-------0h2h5-3h2h0------|
|------------------------7h5h3-------------3--3-|
|-----------------------------------------------|
|-----------------------------------------------|
|-----------------------------------------------|
|-----------------------------------------------|


|--3h2h0-0--0-3h2h0-0--0----------5-3----------|
|------------------------7h5h3-3-------5-7h5h3-|
|----------------------------------------------|
|----------------------------------------------|
|----------------------------------------------|
|----------------------------------------------|


|-------------------------3h2h0-------------|
|--7h5h3-3--3-7h5h3-0h2h3-------3h5h7-5--5--|
|-------------------------------------------|
|-------------------------------------------|
|-------------------------------------------|
|-------------------------------------------|

(4.01)
|--3h2h0-0--0-3h2h0-0--0-------0h2h3-5----------|
|------------------------7h5h3----------5-7h5h3-|
|-----------------------------------------------|
|-----------------------------------------------|
|-----------------------------------------------|
|-----------------------------------------------|
|
|--7h0-3h0--0-7h0-3h0--0-5h3h2-3h5h7-9----------|
|---------------------------------------5-7h5h3-|H
|-----------------------------------------------|A
|-----------------------------------------------|R
|-----------------------------------------------|M
|-----------------------------------------------|



|--3h2h0-0--0-3h2h0-0--0-------0h1h3-1--0-1h3h5-|
|------------------------6h5h3------------------|
|-----------------------------------------------|
|-----------------------------------------------|
|-----------------------------------------------|
|-----------------------------------------------|
|
|--7h0-3h0--0-7h0-3h0--0-5h3h1-3h5h7-5----5h7h8-|
|---------------------------------------8-------|H
|-----------------------------------------------|A
|-----------------------------------------------|R
|-----------------------------------------------|M
|-----------------------------------------------|


|--3h2h0-0--0-3h2h0-0--0-----------5-3----------|
|------------------------7h5h3-3--------5-7h5h3-|
|-----------------------------------------------|
|-----------------------------------------------|
|-----------------------------------------------|
|-----------------------------------------------|
|
|--7h0-3h0--0-7h0-3h0--0-5h3h2-3h5h7-5--3-5h3h2-|
|-----------------------------------------------|H
|-----------------------------------------------|A
|-----------------------------------------------|R
|-----------------------------------------------|M
|-----------------------------------------------|


|--3h2h0-0---3-7---3-5h3h2-2---3-5h3h2------|
|--------------------------------------5----|
|-------------------------------------------|
|-------------------------------------------|
|-------------------------------------------|
|-------------------------------------------|
|
|--7h0-3h0--7-10--7-8h10h8-3h5h7-8h7h5-7----|
|-------------------------------------------|H
|-------------------------------------------|A
|-------------------------------------------|R
|-------------------------------------------|M
|-------------------------------------------|

(4.10)
|--3h2h0-0--0-3h2h0-0--0-------0h2h3-5----------|
|------------------------7h5h3----------5-7h5h3-|
|-----------------------------------------------|
|-----------------------------------------------|
|-----------------------------------------------|
|-----------------------------------------------|
|
|--7h0-3h0--0-7h0-3h0--0-5h3h2-3h5h7-9----------|
|---------------------------------------5-7h5h3-|H
|-----------------------------------------------|A
|-----------------------------------------------|R
|-----------------------------------------------|M
|-----------------------------------------------|


|--3h2h0-0--0-3h2h0-0--0-------0h2h5-3h2h0------|
|------------------------7h5h3-------------3--3-|
|-----------------------------------------------|
|-----------------------------------------------|
|-----------------------------------------------|
|-----------------------------------------------|
|
|--7h0-3h0--0-7h0-3h0--0-5h3h2-3h5h7-5--3-5h7h8-|
|-----------------------------------------------|H
|-----------------------------------------------|A
|-----------------------------------------------|R
|-----------------------------------------------|M
|-----------------------------------------------|


|--3h2h0-0--0-3h2h0-0--0-----------5-3----------|
|------------------------7h5h3-3--------5-7h5h3-|
|-----------------------------------------------|
|-----------------------------------------------|
|-----------------------------------------------|
|-----------------------------------------------|
|
|--7h0-3h0--0-7h0-3h0--0-5h3h2-3h5h7-5--3-5h3h2-|
|-----------------------------------------------|H
|-----------------------------------------------|A
|-----------------------------------------------|R
|-----------------------------------------------|M
|-----------------------------------------------|


|--3h2h0-0h2h3-5---2-3h2h0-2---3-5h3h2-0--2--|
|--------------------------------------------|
|--------------------------------------------|
|--------------------------------------------|
|--------------------------------------------|
|--------------------------------------------|
|
|--7-0-3-0--7-10--7-8h10h8-3h5h7-8h7h5-3--5--|
|--------------------------------------------|H
|--------------------------------------------|A
|--------------------------------------------|R
|--------------------------------------------|M
|--------------------------------------------|

(4.19)
|--12h0h10h12-0-0-15h12h10h12-0-0-12h0h10h12-0-0-15h12h10h12-0-0-|
|----------------------------------------------------------------|
|----------------------------------------------------------------|
|----------------------------------------------------------------|
|----------------------------------------------------------------|
|----------------------------------------------------------------|


|--19h17h15-17-----15--------------17--------------------|
|---------------19-----17-19h17h15-----17-19h17h15-17----|
|--------------------------------------------------------|
|--------------------------------------------------------|
|--------------------------------------------------------|
|--------------------------------------------------------|


|--12h0h10h12-0-0-15h12h10h12-0-0-12h0h10h12-0-0-15h12h10h12-0-15-|
|-----------------------------------------------------------------|
|-----------------------------------------------------------------|
|-----------------------------------------------------------------|
|-----------------------------------------------------------------|
|-----------------------------------------------------------------|


|--17h15h14-15--14-15h14h12-14--10-12--------------------|
|--------------------------------------12--8h10h8-7h8h10-|
|--------------------------------------------------------|
|--------------------------------------------------------|
|--------------------------------------------------------|
|--------------------------------------------------------|

3/4
|----------------------------|
|--12--8--8h10h8-------------|
|----------------11h9h7-9----|
|----------------------------|
|----------------------------|
|----------------------------|

4/4
(4.30)
|--12h0h10h12-0-0-15h12h10h12-0-0-19h0-0-17h0-0-14h0-0-15--|
|----------------------------------------------------------|
|----------------------------------------------------------|
|----------------------------------------------------------|
|----------------------------------------------------------|
|----------------------------------------------------------|
|
|--3-h0-h2-h3-0-0-3-h0-h2-h3--0-0-3------2-----------------|
|-----------------------------------------------3-------5--|H
|----------------------------------------------------------|A
|----------------------------------------------------------|R
|----------------------------------------------------------|M
|----------------------------------------------------------|





|--19h17h15-17-----15--------------17--------------------|
|---------------19-----17-19h17h15-----17-19h17h15-17----|
|--------------------------------------------------------|
|--------------------------------------------------------|
|--------------------------------------------------------|
|--------------------------------------------------------|
|
|--3-h2-h0--2------0------2--------3h2h0-----------------|
|-----------------------------------------7-h5-h3--5-----|H
|--------------------------------------------------------|A
|--------------------------------------------------------|R
|--------------------------------------------------------|M
|--------------------------------------------------------|


|--12h0h10h12-0-0-15h12h10h12-0-0-12h0h10h12-0-0-15h12h10h12-0-15-|
|-----------------------------------------------------------------|
|-----------------------------------------------------------------|
|-----------------------------------------------------------------|
|-----------------------------------------------------------------|
|-----------------------------------------------------------------|


|--17h15h14-15--14-15h14h12-14--10-12--------------------|
|--------------------------------------12--8h10h8-7h8h10-|
|--------------------------------------------------------|
|--------------------------------------------------------|
|--------------------------------------------------------|
|--------------------------------------------------------|

                                 2/4
|--------------------------------|-----------|
|--12--8--8h10h8-----------------|--5~-------|
|----------------11h9h7-9--------|--N.H.-----|
|--------------------------------|-----------|
|--------------------------------|-----------|
|--------------------------------|-----------|

4/4
(4.42)
|--0--7--0-3h2h0-0--2-0--7--0-3h2h0-2--|
|--------------------------------------|
|--------------------------------------|
|--------------------------------------|
|--------------------------------------|
|--------------------------------------|


|--3--3-5h3h2-3--5-7--2-3h2h0-------3--2-0--2-|
|-----------------------------3h5h7-----------|
|---------------------------------------------|
|---------------------------------------------|
|---------------------------------------------|
|---------------------------------------------|


|--0--7--0-3h2h0-0--2-0--7--0-3h2h0-2--|
|--------------------------------------|
|--------------------------------------|
|--------------------------------------|
|--------------------------------------|
|--------------------------------------|


|--3--3-5h3h2-3--5-7--2-3h2h0-------3--2-0--2-|
|-----------------------------3h5h7-----------|
|---------------------------------------------|
|---------------------------------------------|
|---------------------------------------------|
|---------------------------------------------|

(4.52)
|-----10----------------------10-------------------|
|--8------8-11h10h8-6h8h10-8------8-11h10h8-6h8h10-|
|--------------------------------------------------|
|--------------------------------------------------|
|--------------------------------------------------|
|--------------------------------------------------|


|--6--6-8h6h5-6--8-10--5-6h5h3-1h3h5-6--5-3--5-|
|----------------------------------------------|
|----------------------------------------------|
|----------------------------------------------|
|----------------------------------------------|
|----------------------------------------------|


|-----10----------------------10-------------------|
|--8------8-11h10h8-6h8h10-8------8-11h10h8-6h8h10-|
|--------------------------------------------------|
|--------------------------------------------------|
|--------------------------------------------------|
|--------------------------------------------------|


|--6--6-8h6h5-6--8-10--5-6h5h3-1h3h5-3----|
|-----------------------------------------|
|-----------------------------------------|
|-----------------------------------------|
|-----------------------------------------|
|-----------------------------------------|

Repeat Riff 4

Repeat Riff 5 (2 times)

1st ending of Riff 5
  |       |       |       |
|--------------------------------|G
|--------------------------------|T
|--------------------------------|R
|-9------------------------------|1
|-9-------------------7910975----|&
|-7---------------7910-------975-|2


2nd ending of Riff 5 (end of song)
  |           |           |           |             |
|-------------------------------------------------|---------|
|-------------------------------------------------|-12--\---|G
|-------------------------------------------------|---------|T
|--------------------h-h---------h-h---------h-h--|---------|R
|--------h-h--5-5-5-5-7-9-5-5-5-5-7-9-5-5-5-5-7-9-|---------|1
|-7-7-7-7-910-------------------------------------|---------|
|
|-------------------------------------------------|---------|
|-------------------------------------------------|---------|G
|-------------------------------------------------|---------|T
|-------------------------------------------------|-9---\---|R
|--------h-h---------h-h---------h-h---------h-h--|-9---\---|2
|-7-7-7-7-910-7-7-7-7-910-7-7-7-7-910-7-7-7-7-910-|-7---\---|

  Visit MetalTabs.com for more metal tablature

bottom separator

Contact Us | Privacy Policy | Disclaimer
Copyright © 2001-2014 MetalTabs.com. All Rights Reserved.