top separator

Home

Forum

What's New

Submit a Tab

FAQ

Links

Contact Us

Link to Us

MetalTabs.com logo

Bands

0-9

A

B

C

D

E

F

G

H

I

J

K

L

M

N

O

P

Q

R

S

T

U

V

W

X

Y

Z

Search

What

Where
 

Ensiferum - "Warrior's Quest" Guitar Tab

Plain Text Version
More Ensiferum Tabs

Hits: 10470
Rated: 4.11 out of 5 (9 votes)
Updated: 2005-06-24 12:26:10

 

By:

Theoldman

sendpm.gif

email.gif

Important note
This tab is available online because we obtained explicit permission from Ensiferum or their label.


#----------------------------------PLEASE NOTE---------------------------------#
#This file is the author's own work and represents their interpretation of the #
#song. You may only use this file for private study, scholarship, or research. #
#Unless specified otherwise, this is NOT an official tab from the band members.#
#------------------------------------------------------------------------------#

  Visit MetalTabs.com for more metal tablature
  
Band:  Ensiferum
Album: 1997-1999
Song:  Warrior's Quest

Copyright (c)  Spinefarm 2005
Version 1.0 - 16.6.2005

Transcribed By: theoldman
Email:          swordbearing@hotmail.com
________________________________________

.  - palm mute           /  - slide up to
\  - slide down to       ~  - vibrato
h  - hammer on           b  - Bend
p  - pull off            Suffixes for bend
t  - tap                 f  - full bend    h - half bend
ph - pinched harmonic    q  - quarter bend t - tap bend
*  - see comment         ^  - Hold bend    r release bend
x  - Stuccatto           ~  - vibrato bend
,  - slight palm mute    () - ghost note, sustained note
"  - tremolo note        <> - Trill

Tuning E A D G B E

Solo 1 (0:02-0:33)
|------------|------------|------------|-----------|
|------------|------------|------------|-----------|
|6-----------|------------|------------|-----------|
|--7-6-4-6-7-|9-7-6-----6-|9-7-6-----6-|9-7-6-4----|
|------------|------7-9---|------7-9---|-----------|
|------------|------------|------------|-----------|



Solo 2 (0:34-1:05)
|-------------------------------------------|
|-------------------------------------------|
|6---------6--------------------------------|
|----4-4--4--7---7------6-7--97-6-----------|
|------------------7---7------------7-9-----|
|-------------------------------------------|


Riff 1 (1:06-1:21)
|------------------------------------------------|
|------------------------------------------------|
|------------------------------------------------|
|------------6------------------6----------------|
|4-----4-----4-4444-2-----7-----4-44446---2-4----|
|2-22222-2222-------0-00005-5555------4-440-2----|
   ....  ....  ....   ....  ....  ....  ..



Riff 2 (1:22-1:37)
|--------------------------------------------------------------|
|--------------------------------------------------------------|
|--------------------------------------------------------------|
|--------------------------------------------------------------|
|--------------------------------------------------------------|
|2222-00-2222-00-4444-55-444444-5555-77-4444-00-4444-55-222222-|

|--------------------------------------------------------------|
|--------------------------------------------------------------|
|--------------------------------------------------------------|
|--------------------------------------------------------------|
|-------------------------------4444---------------------------|
|2222-00-2222-00-4444-55-444444------44-5555-44-0000-44-222222-|



Solo 2 (1:38-1:44)



Solo 3 (1:45-1:52)
|-------------------------------------------|
|-------------------------------------------|
|6---------6--------------------------------|
|----4-4--4--7---7------6-7--97-676--6-4----|
|------------------7---7-----------97-------|
|-------------------------------------------|



Solo 4 (1:53-2:08)
|---------------------------------------------------------------|
|---------------------------------------------------------------|
|---------------------------------------------------------------|
|4------6-------7---7---6-------4-------6-------7---7---9-------|
|---------------------------------------------------------------|
|---------------------------------------------------------------|



Solo 5 (2:09-2:25)
|----------------------------------------------|
|----------------------------------------------|
|----------------------------------------4-----|
|4-----4-6----7-6-----7-----7-9-7-6----6-------|
|----------------------------------------------|
|----------------------------------------------|



Solo 6 (2:26-2:41)
|------------------------------------------------------|
|------------------------------------------------------|
|11---------11------------------------9----------------|
|-----9-9--9---12---12--------11-12----12-11---7-9-----|
|----------------------12---12-------------------------|
|------------------------------------------------------|



Riff 3 (2:42-2:57)
|-------------------------|
|-------------------------|
|-------------------------|
|------------------9------|
|9-----9-----9-----7-7777-|
|7-77777-77777-7777-------|
   ....  ....  ....  ....



Riff 4 (2:58-3:05)
|-------------------------|
|-------------------------|
|-------------------------|
|-------------------------|
|9-----9-----9-----9------|
|7-77777-77777-77777-7777-|
   ....  ....  ....  ....


Riff 5 (3:06-3:21)
|------------------------|
|------------------------|
|------------------------|
|------------------------|
|9-----9-----9-----7-75--|
|7-77777-77777-7777----7-|
   ....  ....  ....


Riff 6 (3:22-3:37)
|-----------------------------|
|-----------------------------|
|-----------------------------|
|-----------------------------|
|9------11-----12------11-----|
|7------9------10------9------|



Solo 1 (3:38-3:53)

Riff 2 (3:54-4:25)

Solo 5 (4:26-4:41)

Solo 2 (4:42-5:18)



END

  Visit MetalTabs.com for more metal tablature

bottom separator

Contact Us | Privacy Policy | Disclaimer | Legal Notice
Copyright © 2001-2014 MetalTabs.com. All Rights Reserved.