top separator

Home

Forum

What's New

Submit a Tab

FAQ

Links

Contact Us

Link to Us

MetalTabs.com logo

Bands

0-9

A

B

C

D

E

F

G

H

I

J

K

L

M

N

O

P

Q

R

S

T

U

V

W

X

Y

Z

Search

What

Where
 

Darkwell - "Pictures of Strive" Guitar Tab

Plain Text Version
More Darkwell Tabs

Hits: 2814
Updated: 2005-06-19 04:56:24

 

By:

sendpm.gif

email.gif

Important note
This tab is available online because we obtained explicit permission from Darkwell or their label.


#----------------------------------PLEASE NOTE---------------------------------#
#This file is the author's own work and represents their interpretation of the #
#song. You may only use this file for private study, scholarship, or research. #
#Unless specified otherwise, this is NOT an official tab from the band members.#
#------------------------------------------------------------------------------#

  Visit MetalTabs.com for more metal tablature
  
Band:  Darkwell
Album: (Suspiria)
Song:  (pictures of strive)

Copyright (c)  (Napalm Records AMERICA) (2000)


Transcribed By: (anacoria)
Email:          (metalsoul333@hotmail.com)


.  - palm mute           ~ -vibrato
/  - slide up to        \- slide down to
Tuning E A D G B E

|-------------
|-------------
|-------------
|-6-4-22------  (4x)  intro
|-6-4-22------
|-3-2-00------
      ..

|---------------------
|---------------------
|-4\5-6/5-------------
|-4\5-6/5-6-4-2-------   (4x) pre verse     *play that note for 2 seconds
|-2\3-4/3-6-4-2-------
|---------3-2-0-------
              *

|--------------------------------
|--------------------------------
|----------3---------------------  (4X) verse
|--2---2---3-------5-------6-3-2-
|--2-2---2-1---1---5---3---6-3-2-
|--0---------0---0-3-0---0-4-1-0-
           ~       ~       ~   ~

|-------------------
|-------------------
|---10-------10-7---
|-7-10-5---7-10-7-7- (2x) Chorus
|-7-8--5---7-8--5-7-
|-5----3---5------5-
  ~ ~  ~   ~ ~  ~ ~

|-----------
|-----------
|-7--------- do this (once) after finishing chorus and before starting
|-7-9/5/4/2-  the second verse
|-5-9/5/4/2-
|---7/5/2/0-
      . . .

|--------------------------------
|--------------------------------
|----------3---------------------  (4X) second verse
|--2---2---3-------5-------6-3-2-
|--2-2---2-1---1---5---3---6-3-2-
|--0---------0---0-3-0---0-4-1-0-
           ~       ~       ~   ~

|-------------------
|-------------------
|---10-------10-7---
|-7-10-5---7-10-7-7- (2x) second Chorus
|-7-8--5---7-8--5-7-
|-5----3---5------5-
  ~ ~  ~   ~ ~  ~ ~

|----------
|----------
|-5------4-
|-5-10-5-4- do this after second chorus.
|-7-10-5-2- then repeat verses and chorus again.
|---8--3---

|-----------------------
|-----------------------
|-7---------------------
|-7---------9----------- (2x) conclude with this
|-5-8-7-8-7-9-----------
|-----------7-10-9-10-9-

|---
|---
|--- end with this note
|-2-
|-2-
|-0-

  Visit MetalTabs.com for more metal tablature

bottom separator

Contact Us | Privacy Policy | Disclaimer | Legal Notice
Copyright © 2001-2014 MetalTabs.com. All Rights Reserved.