top separator

Home

Forum

What's New

Submit a Tab

FAQ

Links

Contact Us

Link to Us

MetalTabs.com logo

Bands

0-9

A

B

C

D

E

F

G

H

I

J

K

L

M

N

O

P

Q

R

S

T

U

V

W

X

Y

Z

Search

What

Where
 

Acid Bath - "13 Fingers" Guitar Tab

Plain Text Version
More Acid Bath Tabs

Hits: 3712
Rated: 4.64 out of 5 (11 votes)
Updated: 2005-06-19 04:50:55

 

By:

sendpm.gif

email.gif

Important note
We did our best to reach Acid Bath and ask for their permission to publish this tab. Unfortunately they did not respond to our requests or we could not find a way to contact them. This tab is available online until Acid Bath tells us to take it down.


#----------------------------------PLEASE NOTE---------------------------------#
#This file is the author's own work and represents their interpretation of the #
#song. You may only use this file for private study, scholarship, or research. #
#Unless specified otherwise, this is NOT an official tab from the band members.#
#------------------------------------------------------------------------------#

  Visit MetalTabs.com for more metal tablature
  
Band: Acid Bath
Album: peagan terrorism tactics                 h=hammer on
Song:  13 fingers                                /=slide

Copyright (c)  rotton records 1996
Version 1.0--- june/13/2005

Transcribed By: michael mowl
Email:          cannibal_corpse_66632@hotmail.com


|-------------------------------------------------------------------|
|-------------------------------------------------------------------|
|-------------------------------------------------------------------|
|-------------------------------------------------------------------|
|-------------------------------------------------------------------|
|-1-2222222--1-2222222--1-22-1-22-1-2222222-------------------------|

|-------------------------------------------------------------------|
|-------------------------------------------------------------------|
|-------------------------------------------------------------------|
|-------------------------------------------------------------------|
|-1-2222222--1-2222222--1-22-1-22-1-2222222-------------------------|
|-1-2222222--1-2222222--1-22-1-22-1-2222222-------------------------|

      bleeding on your highway baby.....
|-------------------------------------------------------------------|
|-------------------------------------------------------------------|repeat 6x
|-------------------------------------------------------------------|
|-------------------------------------------------------------------|
|-------------------------------------------------------------------|
|-1h222-3h222-1h22-\66----------------------------------------------|

     mutant....psycho
|-------------------------------------------------------------------|
|-------------------------------------------------------------------|repeat 4x
|-------------------------------------------------------------------|
|-------------------------------------------------------------------|
|-3-555-333-6-222---------------------------------------------------|
|-3-555-333-6-222---------------------------------------------------|

|-------------------------------------------------------------------|
|-------------------------------------------------------------------|repeat 6x
|-------------------------------------------------------------------|
|-------------------------------------------------------------------|
|-------------------------------------------------------------------|
|-1h222-3h222-1h22-\66----------------------------------------------|

|-------------------------------------------------------------------|
|-------------------------------------------------------------------|repeat 4x
|-------------------------------------------------------------------|
|-------------------------------------------------------------------|
|-3-555-333-6-222---------------------------------------------------|
|-3-555-333-6-222---------------------------------------------------|

|-------------------------------------------------------------------|
|-------------------------------------------------------------------|
|-------------------------------------------------------------------|
|-------------------------------------------------------------------|
|-1-2222222--1-2222222--1-22-1-22-1-2222222---77-66-55--------------|
|-1-2222222--1-2222222--1-22-1-22-1-2222222---77-66-55--------------|

|-------------------------------------------------------------------|
|-------------------------------------------------------------------|
|-------------------------------------------------------------------|
|-------------------------------------------------------------------|
|--33--4444--77-66-55-----------------------------------------------|
|--33--4444--77-66-55-----------------------------------------------|

|-------------------------------------------------------------------|
|-------------------------------------------------------------------|
|-------------------------------------------------------------------|
|-------------------------------------------------------------------|
|-------------------------------------------------------------------|
|-222--888----------------------------------------------------------|

     i trace the skull in your face, and remember.....
|-------------------------------------------------------------------|
|-------------------------------------------------------------------|
|-------------------------------------------------------------------|
|-------------------------------------------------------------------|
|-------------------------------------------------------------------|
|-5-6-3-3-6-55-66---------------------------------------------------|

|-------------------------------------------------------------------|
|-------------------------------------------------------------------|repeat 2x
|-------------------------------------------------------------------|
|-------------------------------------------------------------------|
|-------------------------------------------------------------------|
|-3-555-333-6-222---------------------------------------------------|


|-------------------------------------------------------------------|
|-------------------------------------------------------------------|
|-------------------------------------------------------------------|
|-------------------------------------------------------------------|
|-3-555-333-6-222---------------------------------------------------|
|-3-555-333-6-222---------------------------------------------------|

well, this is the end you'll have to listen to the song for timing.
and it's in usual acid bath tuning...
this is my first tab and i hope you enjoy,good luck...

  Visit MetalTabs.com for more metal tablature

bottom separator

Contact Us | Privacy Policy | Disclaimer | Legal Notice
Copyright © 2001-2014 MetalTabs.com. All Rights Reserved.