top separator

Home

Forum

What's New

Submit a Tab

FAQ

Links

Contact Us

Link to Us

MetalTabs.com logo

Bands

0-9

A

B

C

D

E

F

G

H

I

J

K

L

M

N

O

P

Q

R

S

T

U

V

W

X

Y

Z

Search

What

Where
 

Palehorse - "Rides In (On a Cash Cow)" Bass Tab

Plain Text Version
More Palehorse Tabs

Hits: 1625
Updated: 2005-06-19 04:33:50

 

By:

Severed

sendpm.gif

email.gif

Important note
This tab is available online because we obtained explicit permission from Palehorse or their label.


#----------------------------------PLEASE NOTE---------------------------------#
#This file is the author's own work and represents their interpretation of the #
#song. You may only use this file for private study, scholarship, or research. #
#Unless specified otherwise, this is NOT an official tab from the band members.#
#------------------------------------------------------------------------------#

  Visit MetalTabs.com for more metal tablature
  
Palehorse
Rides In (on a cash cow)
Gee that Aint Swell
Dry Run Records 2003
Adam Turner-Heffer newnoise@hotmail.co.uk
C# F# B E

Intro/main riff
-----------------------------
----------------2-0--------0----
---------------------1--0-1------
--0-0-0-3^-3--0--0-0--------0-1-

Verse
--------------------------------------------------------------------------------
--------------------------------------------------------------------------------
------------------0-0-0-0-0-0-0-0-----------------------------------------------
--0-0-0-0-0-0-0-0----------------1-1-1-1-1-1-1-1-0-0-0-0-0-0-0-0-3-3-3-3-3-3-3-3

------------------
----3-3--3--5-5--5
1-1---1-1---------
------------------

back to main riff

Break
-----------------------------------------------
----0-2-2^2-------------------2-0--------0-----
-----------------------------------1--0-1------
--0----------3--4-5-6-5-4^--0--0-0--------0-1--

end
---
---
---
-0-

enjoi.

  Visit MetalTabs.com for more metal tablature

bottom separator

Contact Us | Privacy Policy | Disclaimer | Legal Notice
Copyright © 2001-2014 MetalTabs.com. All Rights Reserved.