top separator

Home

Forum

What's New

Submit a Tab

FAQ

Links

Contact Us

Link to Us

MetalTabs.com logo

Bands

0-9

A

B

C

D

E

F

G

H

I

J

K

L

M

N

O

P

Q

R

S

T

U

V

W

X

Y

Z

Search

What

Where
 

Palehorse - "One, But Not Metallica" Bass Tab

Plain Text Version
More Palehorse Tabs

Hits: 3243
Rated: 1.00 out of 5 (1 vote)
Updated: 2005-06-19 04:33:40

 

By:

Severed

sendpm.gif

email.gif

Important note
This tab is available online because we obtained explicit permission from Palehorse or their label.


#----------------------------------PLEASE NOTE---------------------------------#
#This file is the author's own work and represents their interpretation of the #
#song. You may only use this file for private study, scholarship, or research. #
#Unless specified otherwise, this is NOT an official tab from the band members.#
#------------------------------------------------------------------------------#

  Visit MetalTabs.com for more metal tablature
  
Palehorse
One But Not Metallica
Gee That Aint Swell
Dry Run Records 2003
Adam Turner-Heffer
C# F# B E

intro/main riff
---4-------4---2--------
-----0-2-0---2---2----0-
-------------------0----
--0---------------------

break
-------
-------
--0----
----0*-

Verse
-----------------
-----------------
--1-------1------
----2-1-0--2-010-

Break 2/verse 2
----------------------------------
----------------------------------
--1----1----1----1---1---1--1--1--
----------------------------------

chorus
--------------
--------------
--1-2-4---4-2-
--------3----- repeat

Break 2 till end.

enjoi.

  Visit MetalTabs.com for more metal tablature

bottom separator

Contact Us | Privacy Policy | Disclaimer | Legal Notice
Copyright © 2001-2014 MetalTabs.com. All Rights Reserved.