top separator

Home

Forum

What's New

Submit a Tab

FAQ

Links

Contact Us

Link to Us

MuSpy.com

MetalTabs.com logo

Bands

0-9

A

B

C

D

E

F

G

H

I

J

K

L

M

N

O

P

Q

R

S

T

U

V

W

X

Y

Z

Search

What

Where
 

Palehorse - "Look What Pale Horse Has Done To Me" Bass Tab

Plain Text Version
More Palehorse Tabs

Hits: 1788
Updated: 2005-06-19 04:33:37

 

By:

Severed

sendpm.gif

email.gif

Important note
This tab is available online because we obtained explicit permission from Palehorse or their label.


#----------------------------------PLEASE NOTE---------------------------------#
#This file is the author's own work and represents their interpretation of the #
#song. You may only use this file for private study, scholarship, or research. #
#Unless specified otherwise, this is NOT an official tab from the band members.#
#------------------------------------------------------------------------------#

  Visit MetalTabs.com for more metal tablature
  
Palehorse
Look what Palehorse has done to me
Gee that aint swell
dry run records 2003
Adam Turner-Heffer newnoise@hotmail.co.uk
C# F# B E

Intro
-----------------------------------------------------------------
--------------------------1-1-1-1------------------------1-1-1-1-
----------1-----------------------------1------------------------
--0-3-2-1---3-2-1--0-3-2-1--------3-2-1---3-2-1--0-3-2-1---------

Break
-------------------
-------------------
-------------------
--0-0-0-0-0-0-0-0--

Chorus
-------------------------
-------------------------
-----------1-/5-/8p7-7-5-
--0-0--3-0---------------

Break

Bridge (bass plays chords over samples of television and writing)
----------------------
--5----4----12----10--
--3----2----10-----8--
----------------------

---------------------
--5----4---------10--
--3----2----5-----8--
------------3--------

end of bridge
----
----
----
-1^-

Break

Outro (repeat these chords 8x (approx) each.)
--7--3--2--------------------------------------------
--5--1--0--5--4--3--2--------------------------------
-----------3--2--1--0--------------------------------
-----------------------1-1-1-1-1-1-1-1-1-1-1-1-1-1-1-

Break until end.

enjoi.

  Visit MetalTabs.com for more metal tablature

bottom separator

Contact Us | Privacy Policy | Disclaimer | Legal Notice
Copyright © 2001-2014 MetalTabs.com. All Rights Reserved.