top separator

Home

Forum

What's New

Submit a Tab

FAQ

Links

Contact Us

Link to Us

MetalTabs.com logo

Bands

0-9

A

B

C

D

E

F

G

H

I

J

K

L

M

N

O

P

Q

R

S

T

U

V

W

X

Y

Z

Search

What

Where
 

Palehorse - "Holy Trinity Church Student Bar" Bass Tab

Plain Text Version
More Palehorse Tabs

Hits: 1951
Updated: 2005-06-19 04:33:32

 

By:

Severed

sendpm.gif

email.gif

Important note
This tab is available online because we obtained explicit permission from Palehorse or their label.


#----------------------------------PLEASE NOTE---------------------------------#
#This file is the author's own work and represents their interpretation of the #
#song. You may only use this file for private study, scholarship, or research. #
#Unless specified otherwise, this is NOT an official tab from the band members.#
#------------------------------------------------------------------------------#

  Visit MetalTabs.com for more metal tablature
  
Palehorse
Holy Trinity Church Student Bar
Gee that aint swell
Dry Run Records 2003
Adam Turner-Heffer newnoise@hotmail.co.uk
Tuning C# F# B E
note: the majority of Palehorses songs are written and performed with two basses
tuned to C# with a ton of distortion.

Intro (0:00-0:25)
----------------------------------------
----------------------------------------
----------------------------------------
-4-0-0-0-1-0-0-0--4-0-0-0--0-0-0-0--0-0-

Riff (0:30-2:07)
---------------------------|-------------
---------------------------|-------------
-----5/7-7-7-7-------------|-------------
-0-0-----------5h7p4-4h5p4-|1-1-1-1------ < this doesnt start until fourth time.

Riff fill: (first three times) No Distortion.
----------------------------------
--3-3-3-3-----------------7-7-7-7-
----------5-5-5-5-5-5-5-5---------
----------------------------------

Bridge (2:07-2:38)
----------------------------------------
----------------------------------------
----------------------------------------
-1-1-1-1-1-1-1-1-1-1-1-1-1-1-1-1-1-1-1-1

*Distortion Off*

Outro Bass 1 (2:38-6:00) (Gradually getting louder)
----------------------------------------
----------------------------------------
----------------------------------------
-0-0-0-0-0-0-0-0-0-0-0-0-0-0-0-0-0-0-0-0

Outro Bass 2 (2:38-6:00) (Gradually Getting Louder)
---------------------------------------------------------------------
-14*-14-9*-9-14*-14-9*-9-6-6-6-6-6-6-6-6-4-4-4-4-2-2-2-2-2-2-2-2-----
---------------------------------------------------------------------
---------------------------------------------------------------------

Enjoi.

  Visit MetalTabs.com for more metal tablature

bottom separator

Contact Us | Privacy Policy | Disclaimer | Legal Notice
Copyright © 2001-2014 MetalTabs.com. All Rights Reserved.