top separator

Home

Forum

What's New

Submit a Tab

FAQ

Links

Contact Us

Link to Us

MetalTabs.com logo

Bands

0-9

A

B

C

D

E

F

G

H

I

J

K

L

M

N

O

P

Q

R

S

T

U

V

W

X

Y

Z

Search

What

Where
 

Palehorse - "Don't Die On An Empty Stomach" Bass Tab

Plain Text Version
More Palehorse Tabs

Hits: 1756
Updated: 2005-06-19 04:33:08

 

By:

Severed

sendpm.gif

email.gif

Important note
This tab is available online because we obtained explicit permission from Palehorse or their label.


#----------------------------------PLEASE NOTE---------------------------------#
#This file is the author's own work and represents their interpretation of the #
#song. You may only use this file for private study, scholarship, or research. #
#Unless specified otherwise, this is NOT an official tab from the band members.#
#------------------------------------------------------------------------------#

  Visit MetalTabs.com for more metal tablature
  
Palehorse
Don't Die on an Empty Stomach
Gee That Aint Swell
Dry Run Records 2003
Adam Turner-Heffer newnoise@hotmail.co.uk
C# F# B E

Intro
------(x3)|-3---2---|
--------5-|---5---4-|
------3---|---------|
--0-3-----|---------|

Verse
-----------------------------------------
----------------------------------0p2----
--0h3-0h3-0h3--------------0-0-0-0---0p2-
--------------0h1p0-1-1-1-1--------------

end of verse
---------------------------------------
---------------------------------------
--0h3-0h3-0h3--------------------------
--------------0h1-1-1-0h1-1-1----------

Chorus
-----------------------------------------------------
-----------0h2---0/1/2-2-2-2-------------------------
----------------------------0-2-2-2------------------
--0--0-0-0----0-0------------------0h1-0h1-0h1-0h1-1-

end of chorus
---------------------------------------
---------------------------------------
---------------------------------------
--------------0h1-1-1-0h1-1-1----------

Outro riff
------------------------------
---------2--------------------
-----------0h2-1--------------
--0-0-0-0-------0h3-2-0h2-1-1-

end
---------------------------
---------------------------
---------------------------
--0-1-1-1-0-1-1-1----------

enjoi.

  Visit MetalTabs.com for more metal tablature

bottom separator

Contact Us | Privacy Policy | Disclaimer | Legal Notice
Copyright © 2001-2014 MetalTabs.com. All Rights Reserved.