top separator

Home

Forum

What's New

Submit a Tab

FAQ

Links

Contact Us

Link to Us

MuSpy.com

MetalTabs.com logo

Bands

0-9

A

B

C

D

E

F

G

H

I

J

K

L

M

N

O

P

Q

R

S

T

U

V

W

X

Y

Z

Search

What

Where
 

Textures - "Swandive" Bass Tab

Plain Text Version
More Textures Tabs

Hits: 3702
Rated: 4.00 out of 5 (1 vote)
Updated: 2005-06-19 04:32:35

 

By:

Severed

sendpm.gif

email.gif

Important note
This tab is available online because we obtained explicit permission from Textures or their label.


#----------------------------------PLEASE NOTE---------------------------------#
#This file is the author's own work and represents their interpretation of the #
#song. You may only use this file for private study, scholarship, or research. #
#Unless specified otherwise, this is NOT an official tab from the band members.#
#------------------------------------------------------------------------------#

  Visit MetalTabs.com for more metal tablature
  
Textures
Swandive
Polars
B E A D G
note: Textures are technical math/thrash metal wizards. These are some odd
rhythms.
Listenable Records 2004
Adam Turenr-Heffer newnoise@hotmail.co.uk

Guitar start
0:04
Intro:
--------------------------------------------
--------------------------------------------
--------------------------------------------
--------------------------------------------
--0-0--0-0-0-0--0-0--0-0-0-0--0-0--0000000--

(0:23)
Pre-Verse
-----------------------------------
-----------------------------------
-----------------------------------
-----------------------------------
--0-0---0-0-0---0-0---0-0-0---0-0--

0:30
Guitar break
-----------------------------------
-----------------------------------
-----------------------------------
-----------------------------------
-----------------------0--0-0------

0:35
Verse
-------------------------------------------
-------------------------------------------
--6-6-6-6-0-6-6-6-6-0-2-2-2-2-0-2-2-2-2-0--
-------------------------------------------
-------------------------------------------

0:50
fill
-------
-------
--6-6--
-------
-------

0:51 Verse

1:06
Chorus
----------------
----------------
----------------
----------------
--4-3~-------1--

1:14 Verse

1:32
2nd Chorus
----------------
----------------
----------------
----------------
--4-3~-------1-- x2

----------------
----------------
----------------
----------------
--7p6~-------0-- x2

----------------------------
----------------------------
----------------------------
--5----7----6----5----4-----
-------------------------0--

1:57
Breakdown
Pre-Verse
------------------------------------
------------------------------------
------------------------------------
------------------------------------
--0-0--0-0-0-0---0-0--0-0--0-0-0-0--

2:12 slight rhythm change

3:32
Break
------------------------------------
------------------------------------
------------------------------------
------------------------------------
--5-5-5--1~---------------5~--------

------------------------------------
------------------------------------
------------------------------------
------------------------------------
---------1~---------------5~-------- x3

2:53
Bridge (1's)
---------------------------------------------------------
---------------------------------------------------------
---------------------------------------------------------
---------------------------------------------------------
--111-1---1-1---111-1---1-1---555-5---5-5---555-5---5-5-- x2

---------------------------------------------------------
---------------------------------------------------------
---------------------------------------------------------
---------------------------------------------------------
--000-0---0-0---000-0---0-0---000-0---0-0---000-0---0-0--

3:15 Break

3:34
Instrumental
----------------------------------------------------------------------
----------------------------------------------------------------------
----------------------------------------------------------------------
-----------------------------------------------------------2--2-2--5--
--5-5-5--1----1-1-1---1-1-1--4---4-4-4--1----1-1-1--4--4-4------------

---------------------------------------------
---------------------------------------------
---------------------------------------------
--------5--5-5--------2--2-2-----------------
--1-1-1--------4--4-4---------1----1-1-1--4--

4:01
----------------------------------------------------------
----------------------------------------------------------
----------------------------------------------------------
----------------------------------------------------------
--444-4--444-4--0-0-0-0-0--0-0--0-0--0-0-0-0-0--0-0--0-0--

4:06
----------------------------------------------------------
----------------------------------------------------------
----------------------------------------------------------
----------------------------------------------------------
--1-1-1-1--1-1--1-1--1-1-1-1--1-1--1-1--1-1-1-1--1-1--1-1-

4:19
----------------------------------------------------------
----------------------------------------------------------
----------------------------------------------------------
----------------------------------------------------------
--0-0-0-0--0-0--0-0--0-0-0-0--0-0--0-0--0-0-0-0--0-0--0-0-

4:38
--------------------------------------
--------------------------------------
--------------------------------------
--------------------------------------
--0-0-1-0--0-0-1-0--0-0-1-0--0-0-1-0--

4:53 Pre-Verse

enjoi.

  Visit MetalTabs.com for more metal tablature

bottom separator

Contact Us | Privacy Policy | Disclaimer | Legal Notice
Copyright © 2001-2014 MetalTabs.com. All Rights Reserved.