top separator

Home

Forum

What's New

Submit a Tab

FAQ

Links

Contact Us

Link to Us

MetalTabs.com logo

Bands

0-9

A

B

C

D

E

F

G

H

I

J

K

L

M

N

O

P

Q

R

S

T

U

V

W

X

Y

Z

Search

What

Where
 

Einherjer - "Regicide" Guitar Tab

Plain Text Version
More Einherjer Tabs

Hits: 3059
Rated: 4.00 out of 5 (1 vote)
Updated: 2005-06-19 04:32:29

 

By:

Theoldman

sendpm.gif

email.gif

Important note
This tab is available online because we obtained explicit permission from Einherjer or their label.


#----------------------------------PLEASE NOTE---------------------------------#
#This file is the author's own work and represents their interpretation of the #
#song. You may only use this file for private study, scholarship, or research. #
#Unless specified otherwise, this is NOT an official tab from the band members.#
#------------------------------------------------------------------------------#

  Visit MetalTabs.com for more metal tablature
  
Band:  Einherjer
Album: Norwegian Native Art [Re-Release]
Song:  Regicide

Copyright (c)  Tabu Recordings 2005
Version 1.0 - 12.6.2005

Transcribed By: theoldman
Email:          swordbearing@hotmail.com
________________________________________

.  - palm mute           /  - slide up to
\  - slide down to       ~  - vibrato
h  - hammer on           b  - Bend
p  - pull off            Suffixes for bend
t  - tap                 f  - full bend    h - half bend
ph - pinched harmonic    q  - quarter bend t - tap bend
*  - see comment         ^  - Hold bend    r release bend
x  - Stuccatto           ~  - vibrato bend
,  - slight palm mute    () - ghost note, sustained note
"  - tremolo note        <> - Trill

Tuning E A D G B E


Intro: Piano, Strings and Drums


Riff 1 (3:15)
|-----|
|-----|
|-----|
|-----|
|7\---|
|5\---|



Riff 2 (3:16-3:45)
|--------------------------------|--------------------------------|
|--------------------------------|--------------------------------|
|--------------------------------|--------------------------------|
|7-7-7-7-777-7-7-7-7-7-7-777-7-7-|5-5-5-5-555-5-5-5-5-5-5-555-5-5-|
|5-5-5-5-555-5-5-5-5-5-5-555-5-5-|3-3-3-3-333-3-3-3-3-3-3-333-3-3-|
|--------------------------------|--------------------------------|
 . . . . ... . . . . . . ... . .  . . . . ... . . . . . . ... . .

|--------------------------------|--------------------------------|
|--------------------------------|--------------------------------|
|--------------------------------|--------------------------------|
|7-7-7-7-777-7-7-7-7-7-7-777-7-7-|--------------------------------|
|5-5-5-5-555-5-5-5-5-5-5-555-5-5-|7-7-7-7-777-7-7-7-7-7-7-777-7-7-|
|--------------------------------|5-5-5-5-555-5-5-5-5-5-5-555-5-5-|
 . . . . ... . . . . . . ... . .  . . . . ... . . . . . . ... . .

|--------------------------------|--------------------------------|
|--------------------------------|--------------------------------|
|--------------------------------|--------------------------------|
|7-7-7-7-777-7-7-7-7-7-7-777-7-7-|5-5-5-5-555-5-5-5-5-5-5-555-5-5-|
|5-5-5-5-555-5-5-5-5-5-5-555-5-5-|3-3-3-3-333-3-3-3-3-3-3-333-3-3-|
|--------------------------------|--------------------------------|
 . . . . ... . . . . . . ... . .  . . . . ... . . . . . . ... . .

|--------------------------------|
|--------------------------------|
|--------------------------------|
|7-7-7-7-777-7-7-----------------|
|5-5-5-5-555-5-5-888-8-8-777-7-7-|
|----------------666-6-6-555-5-5-|
 . . . . ... . . ... . . ... . .



Solo 1 (3:46-4:03)
|----------------------------------------------------------------------------|
|----------------------------------------------------------------------------|
|----------------------------------------------------------------------------|
|-------------------------------------8----8--8--8-----8--------8-7----------|
|5---5--5-----8-7-3----3--3--3-----3----------------------5---------5-----5--|
|----------------------------------------------------------------------------|



Riff 3 (4:08-4:18)
|-----------------------------------|
|-----------------------------------|
|-----------------------------------|
|7----7----7---------7--------------|
|5----5----5----5----5--------------|
|---------------3-------------------|


END

  Visit MetalTabs.com for more metal tablature

bottom separator

Contact Us | Privacy Policy | Disclaimer | Legal Notice
Copyright © 2001-2014 MetalTabs.com. All Rights Reserved.