top separator

Home

Forum

What's New

Submit a Tab

FAQ

Links

Contact Us

Link to Us

MetalTabs.com logo

Bands

0-9

A

B

C

D

E

F

G

H

I

J

K

L

M

N

O

P

Q

R

S

T

U

V

W

X

Y

Z

Search

What

Where
 

Pain of Salvation - "Falling" Guitar Tab

Plain Text Version
More Pain of Salvation Tabs

Hits: 3477
Rated: 4.50 out of 5 (2 votes)
Updated: 2007-03-26 06:11:51

 

By:

Nicho

sendpm.gif

email.gif

Important note
This tab is available online because we obtained explicit permission from Pain of Salvation or their label.


#----------------------------------PLEASE NOTE---------------------------------#
#This file is the author's own work and represents their interpretation of the #
#song. You may only use this file for private study, scholarship, or research. #
#Unless specified otherwise, this is NOT an official tab from the band members.#
#------------------------------------------------------------------------------#

  Visit MetalTabs.com for more metal tablature
  
Band:  Pain of Salvation
Album: The Perfect Element I
Song:  Falling (nr. 11)

Copyright(c) Insideout 2000
Version 1.0 – 12.06.05

Transcribed By: Nicholay Roald
Email:          Nicholay@kakekommisjonen.com


E-12h14 ~~~~\---/14-17-12-14---10-12-----10----9---9h10p9---------------
B-------------------------------------------12-------------12—10-10\----
G-----------------------------------------------------------------------
D-----------------------------------------------------------------------
A-----------------------------------------------------------------------
E-----------------------------------------------------------------------

E---------14-14----14h15p14-12-12------10-12---10-----------------------
B-/12-15-------------------------------------12---10--12-----10---------
G--------------------------------------------------------12---------9-9-
D----------------------------------------------------------------12-----
A-----------------------------------------------------------------------
E-----------------------------------------------------------------------

E------------------------------------------------------------------------------
B-----10/12b-10--8—7h8p7------------------------7--10--9------9h10p9p7---5-7-9-
G-12--------------------------9--7-7-------7--9--------------------------------
D------------------------------------------------------------------------------
A------------------------------------------------------------------------------
E------------------------------------------------------------------------------

E---------------------7\-------------9\---------------10--10/12\--
B---------10\---7h9h10-------9h10h12------10h12h14----------------
G-9h11h13---------------------------------------------------------
D-----------------------------------------------------------------
A-----------------------------------------------------------------
E-----------------------------------------------------------------

E-12h14-----14/19--19\---21-22-h22h22--21-22-21h22p21p19--17-17---
B-----------------------------------------------------------------
G-----------------------------------------------------------------
D-----------------------------------------------------------------
A-----------------------------------------------------------------
E-----------------------------------------------------------------

E------22---------------------------------------------------------------
B--19------19-19b20-20-20r19----/17-19-/15-17---/15---------------------
G---------------------------------------------16-----14/16-12-14----12--
D----------------------------------------------------------------14-----
A-----------------------------------------------------------------------
E-----------------------------------------------------------------------

E-------------------------------------------------7-\5----------------
B--------------------12--p10-8---------------8-10-------8-7----5------
G-----------12-14--------------9-9-------7h9---------------------7-7--
D--12h14--------------------------------------------------------------
A---------------------------------------------------------------------
E---------------------------------------------------------------------

E--------------------------------------------------------
B--------7-10-8----7/8--10--7----------------------------
G -6-7-9-----------------------7/9--7-5-4----5h5p4-------
D---------------------------------------------------7—7--
A--------------------------------------------------------
E--------------------------------------------------------

E---------------------------------------------------
B---------------------------------------------------
G---------7-9-10-9b10~~~~~~-7-----------------------
D-7--9-10---------------------10-8-7---7h8p7-5-5\---
A---------------------------------------------------
E---------------------------------------------------

E-----------------------------------------------------------------------10/22~~~
B----------------------------------6------6-8----5h6-5b6r5----3~~~/15-----------
G-------5-7------5-7---5h7-/9---7h9----7h9--------------------------------------
D-5h7h8------7h8----------------------------------------------------------------
A-------------------------------------------------------------------------------
E-------------------------------------------------------------------------------

---------------------Fades over to “The Perfect Element”-----------------------

/  - slide up to
\  - slide down to
h  - hammer on
p  - pull off
b  - Bend on
r  - release bend
~  - vibrato bend

If you find any mistakes or want to call me about the band or anything,
feel free to send me an e-mail.
Enjoy.

  Visit MetalTabs.com for more metal tablature

bottom separator

Contact Us | Privacy Policy | Disclaimer | Legal Notice
Copyright © 2001-2014 MetalTabs.com. All Rights Reserved.