top separator

Home

Forum

What's New

Submit a Tab

FAQ

Links

Contact Us

Link to Us

MuSpy.com

MetalTabs.com logo

Bands

0-9

A

B

C

D

E

F

G

H

I

J

K

L

M

N

O

P

Q

R

S

T

U

V

W

X

Y

Z

Search

What

Where
 

After Forever - "Line Of Thoughts" Guitar Tab

Plain Text Version
More After Forever Tabs

Hits: 3322
Rated: 5.00 out of 5 (1 vote)
Updated: 2005-06-16 15:38:46

 

By:

thedarkdream

sendpm.gif

email.gif

Important note
This tab is available online because we obtained explicit permission from After Forever or their label.


#----------------------------------PLEASE NOTE---------------------------------#
#This file is the author's own work and represents their interpretation of the #
#song. You may only use this file for private study, scholarship, or research. #
#Unless specified otherwise, this is NOT an official tab from the band members.#
#------------------------------------------------------------------------------#

  Visit MetalTabs.com for more metal tablature
  
Band:  After Forever
Album: Exordium
Song:  Line Of Thoughts

Copyright (c)  Transmission Records, 2003

Transcribed By: christian sopa (chrthedarkdream)
Email:          darkchr@gmail.com

tuning: Standard (EADGBE), both guitars

< > = harmonics

  Gtr I - acoustic
|---------------------------------|-----------------------------|
|---------------------------------|-------0-------------3-------|
|---0---0---0---0---0---0---0---0-|-----0---0---0-----0---0---0-|
|-2---4---2---4---2---4---2---4---|---4-------4-----4-------4---|
|---------------------------------|-2-------------2-------------|
|---------------------------------|-----------------------------|
|
| Gtr II - distortion
|---------------------------------|-----------------------------|
|---------------------------------|-----------------------------|
|---------------------------------|-----------------------------|
|---------------------------------|-----------------------------|
|-2-2-----2-2-----2-2-----2-2-----|-----------------------------|
|-0-0-----0-0-----0-0-----0-0-----|-----------------------------|


|---------------------------------|-------------------------------|
|-------------------------0-------|-------0-------------0---------|
|---0---0---0---0---0---0---0---0-|-----0---0---0-----0-----0---0-|
|-2---4---2---4---2---4-------4---|---4-------4-----4-------------|
|---------------------------------|-3-------------2-------1---0---|
|---------------------------------|-------------------------------|
|
|---------------------------------|-------------------------------|
|---------------------------------|-------------------------------|
|---------------------------------|-------------------------------|
|---------------------------------|-------------------------------|
|-2-----3-2-----5---3-2-----------|-------------------------------|
|-0-0-0-1-0-0-0-3-5-1-0-----------|-------------------------------|


|---------------------------------|------------------------------|
|---------------------------------|-------0-------------3--------|
|---0---0---0---0---0---0---0---0-|-----0---0---0-----0---0---0--|
|-2---4---2---4---2---4---2---4---|---4-------4-----4-------4----|
|---------------------------------|-2-------------2--------------|
|---------------------------------|------------------------------|
|
|---------------------------------|------------------------------|
|---------------------------------|------------------------------|
|---------------------------------|------------------------------|
|---------------------------------|------------------------------|
|-2-2-----2-2-----2-2-----2-2-----|------------------------------|
|-0-0-----0-0-----0-0-----0-0-----|------------------------------|


|---------------------------------|-----------------------------|
|-------------------------0-------|-------0-------------0-------|
|---0---0---0---0---0---0---0---0-|-----0---0---0-----0---0---0-|
|-2---4---2---4---2---4-------4---|---4-------4-----4-------4---|
|---------------------------------|-3-------------4-------------|
|---------------------------------|-----------------------------|
|
|---------------------------------|-----------------------------|
|---------------------------------|-----------------------------|
|---------------------------------|-----------------------------|
|---------------------------------|-----------------------------|
|-2-----3-2-----5---3-2-----------|-3-------------4-------------|
|-0-0-0-1-0-0-0-3-5-1-0-----------|-----------------------------|



|-----------------------0--|
|-------0-------------0-0--|
|-----0---0---0-----0------|
|---4-------4-----4--------|
|-5-------------7----------|
|--------------------------|
|
|--------------------------|
|--------------------------|
|--------------------------|
|---------------3----------|
|-5-------------3----------|
|---------------1----------|


  Gtr II - distortion only
|---------------|----------------------|
|---------------|----------------------|
|-2-4--4-5------|-2-4--4-5---5-7--4-5--|
|---------------|----------------------|
|---------------|----------------------|
|---------------|----------------------|


  Gtr I - acoustic
|---------------------------------|------------------------------|
|---------------------------------|-------0-------------3--------|
|---0---0---0---0---0---0---0---0-|-----0---0---0-----0---0---0--|
|-2---4---2---4---2---4---2---4---|---4-------4-----4-------4----|
|---------------------------------|-2-------------2--------------|
|---------------------------------|------------------------------|
|
| Gtr II - distortion
|---------------------------------|------------------------------|
|---------------------------------|------------------------------|
|---------------------------------|------------------------------|
|---------------------------------|------------------------------|
|-2-2-----2-2-----2-2-----2-2-----|------------------------------|
|-0-0-----0-0-----0-0-----0-0-----|------------------------------|


|---------------------------------|-------------------------------|
|-------------------------0-------|-------0-------------0---------|
|---0---0---0---0---0-2-0---0---0-|-----0---0---0-----0-----0---0-|
|-2---4---2---4---2-----------4---|---4-------4-----4-------------|
|---------------------------------|-3-------------2-------1---0---|
|---------------------------------|-------------------------------|
|
|---------------------------------|-------------------------------|
|---------------------------------|-------------------------------|
|---------------------------------|-------------------------------|
|---------------------------------|-------------------------------|
|-2-2-----2-2-----2-2-----2-2-----|-------------------------------|
|-0-0-----0-0-----0-0-----0-0-----|-------------------------------|

|---------------------------------|-------------------------------|
|---------------------------------|-------0---------------3-------|
|---0---0---0---0---0---0---0---0-|-----0-----0---0-----0---0---0-|
|-2---4---2---4---2---4---2---4---|---4---------4-----4-------4---|
|---------------------------------|-2---------------2-------------|
|---------------------------------|-------------------------------|
|
|---------------------------------|-------------------------------|
|---------------------------------|-------------------------------|
|---------------------------------|-------------------------------|
|---------------------------------|-4-4---4-4---------------------|
|-2-2---2-2-----------------------|-2-2---2-2---------------------|
|-0-0---0-0-----------------------|-------------------------------|


|---------------------------------|
|-------------------------0-------|
|---0---0---0---0---0-2-0---0---0-|
|-2---4---2---4---2-----------4---|
|---------------------------------|
|---------------------------------|
|
|---------------------------------|
|---------------------------------|
|---------------------------------|
|---------------------------------|
|-2-2---2-2-----------------------|
|-0-0---0-0-----------------------|


|-----------------------------|-----------------------0----|
|-------0-------------0-------|-------0-------------0------|
|-----0---0---0-----0---0---0-|-----0---0---0-----0--------|
|---4-------4-----4-------4---|---4-------4-----4----------|
|-3-------------4-------------|-5-------------7------------|
|-----------------------------|----------------------------|
|
|-----------------------------|----------------------------|
|-----------------------------|----------------------------|
|-----------------------------|----------------------------|
|-----------------------------|----------------------------|
|-3-------------4-------------|-5-------------3------------|
|-----------------------------|---------------1------------|


|-----------------------------|-------1-------0-----------------|
|---0-3---0-1-----0-3---0-1---|-----3-----0-1-------0-----1-1-3-|
|-------------2-------------2-|--2------2-------2-1---2-2-------|
|-----------------------------|---------------------------------|
|-0-----0-------0-----0-------|---------------------------------|
|-----------------------------|---------------------------------|
|
|-----------------------------|---------------------------------|
|-----------------------------|---------------------------------|
|-----------------------------|---------------------------------|
|-2---------------------------|-(2)-----------------------------|
|-0---------------------------|-(0)-----------------------------|
|-----------------------------|---------------------------------|


||------------------------------|-----1-------0-----------------||
||o---0-3---0-1-----0-3---0-1---|---3-----0-1-------0-----1-1-3o||
||--------------2-------------2-|-2-----2-------2-1---2-2-------||
||------------------------------|-------------------------------||
||o-0-----0-------0-----0-------|------------------------------o||
||------------------------------|-------------------------------||


    Gtr II
                                                         4x
||-------------------------------------------------------||
||o-----------------------------------------------------o||
||-------------------------------------------------------||
||--7-7-7--7--7--7-7-7--7--7--7-7-7--7--7--7-7-7--7--7---||
||o-5-5-5--5--5--5-5-5--5--5--5-5-5--5--5--5-5-5--5--5--o||
||-------------------------------------------------------||


|---------------------|---------------------|
|-6-6--6-6--8-8--8-8--|-7-7--7-7--8-8--8-8--|
|-7-7--7-7--7-7--7-7--|-3-3--3-3--6-6--6-6--|
|---------------------|---------------------|
|---------------------|---------------------|
|---------------------|---------------------|


|---------------------|------------------------|
|-6-6--6-6--8-8--8-8--|-7-7--7-7--8-8--8-8-----|
|-7-7--7-7--7-7--7-7--|-3-3--3-3--6-6--6-6-----|
|---------------------|------------------------|
|---------------------|------------------------|
|---------------------|------------------------|


|-----------------------------|-------------------------|
|-10-10--10-10--11-11--11-11--|-8-8--8-8--11-11--11-11--|
|--7--7---7--7--12-12--12-12--|-6-6--6-6----------------|
|-----------------------------|-----------11-11--11-11--|
|-----------------------------|-------------------------|
|-----------------------------|-------------------------|


|-----------------------------|----------------------------|
|-10-10--10-10--11-11--11-11--|-8-8--8-8--11-11--11-11-----|
|--7--7---7--7--12-12--12-12--|-6-6--6-6-------------------|
|-----------------------------|-----------11-11--11-11-----|
|-----------------------------|----------------------------|
|-----------------------------|----------------------------|


  Gtr I
|---------------------------------|----------------------------------|
|---------------------------------|--------0---------------3---------|
|---0---0---0---0---0---0---0---0-|-----0-----0---0-----0-----0---0--|
|-2---4---2---4---2---4---2---4---|---4---------4-----4---------4----|
|---------------------------------|-2---------------2----------------|
|---------------------------------|----------------------------------|
|
| Gtr II
|---------------------------------|----------------------------------|
|---------------------------------|----------------------------------|
|---------------------------------|-----0-<4>-0---0-----0-<3>-0---0--|
|-2---4---2---4---2---4---2---4---|---4---------4-----4---------4----|
|---------------------------------|-2---------------2----------------|
|---------------------------------|----------------------------------|


|---------------------------------|-------------------------------|
|---------------------------------|-------0-------------0---------|
|---0---0---0---0---0---0---0---0-|-----0---0---0-----0-----0---0-|
|-2---4---2---4---2---4---2---4---|---4-------4-----4-------------|
|---------------------------------|-3-------------2-------1---0---|
|---------------------------------|-------------------------------|
|
|---------------------------------|-------------------------------|
|---------------------------------|-------------------------------|
|---------------------------------|-------------------------------|
|-2---4---2---4---2---4---2---4---|-5-------------4-------3---2---|
|---------------------------------|-3-------------2-------1---0---|
|---------------------------------|-------------------------------|


|---------------------------------|----------------------------------|
|---------------------------------|--------0---------------3---------|
|---0---0---0---0---0---0---0---0-|-----0-----0---0-----0-----0---0--|
|-2---4---2---4---2---4---2---4---|---4---------4-----4---------4----|
|---------------------------------|-2---------------2----------------|
|---------------------------------|----------------------------------|
|
|---------------------------------|----------------------------------|
|---------------------------------|----------------------------------|
|---------------------------------|-----0-<4>-0---0-----0-<3>-0---0--|
|-2---4---2---4---2---4---2---4---|---4---------4-----4---------4----|
|---------------------------------|-2---------------2----------------|
|---------------------------------|----------------------------------|


|---------------------------------|-----------------------------|
|-------------------------0-------|-------0-------------0-------|
|---0---0---0---0---0---0---0---0-|-----0---0---0-----0---0---0-|
|-2---4---2---4---2---4-------4---|---4-------4-----4-------4---|
|---------------------------------|-3-------------4-------------|
|---------------------------------|-----------------------------|
|
|---------------------------------|-----------------------------|
|---------------------------------|-----------------------------|
|---------------------------------|-----------------------------|
|-2-4---4-5---------5-7---4-5-----|-5-------------6-------------|
|---------------------------------|-3-------------4-------------|
|---------------------------------|-----------------------------|


|-----------------------0--|------------|-----------0------*|
|-------0-------------0----|------------|-----------0------*|
|-----0---0---0-----0------|------------|---------0--------*|
|---4-------4-----4--------|------------|-------4----------*|
|-5-------------7----------|------------|-----2------------*|
|--------------------------|------------|--0---------------*|
|
|--------------------------|------------|------------------*|
|--------------------------|------------|------------------*|
|--------------------------|------------|------------------*|
|-7------------------------|------------|------------------*|
|-5-------------3----------|-(3)--------|-(3)--------------*|
|---------------1----------|-(1)--------|-(1)--------------*|

  Visit MetalTabs.com for more metal tablature

bottom separator

Contact Us | Privacy Policy | Disclaimer | Legal Notice
Copyright © 2001-2014 MetalTabs.com. All Rights Reserved.