top separator

Home

Forum

What's New

Submit a Tab

FAQ

Links

Contact Us

Link to Us

MuSpy.com

MetalTabs.com logo

Bands

0-9

A

B

C

D

E

F

G

H

I

J

K

L

M

N

O

P

Q

R

S

T

U

V

W

X

Y

Z

Search

What

Where
 

As I Lay Dying - "Meaning in Tragedy" Guitar Tab

Plain Text Version
More As I Lay Dying Tabs

Hits: 8196
Rated: 2.75 out of 5 (4 votes)
Updated: 2005-06-16 15:36:57

 

By:

sendpm.gif

email.gif

Important note
This tab is available online because we obtained explicit permission from As I Lay Dying or their label.


#----------------------------------PLEASE NOTE---------------------------------#
#This file is the author's own work and represents their interpretation of the #
#song. You may only use this file for private study, scholarship, or research. #
#Unless specified otherwise, this is NOT an official tab from the band members.#
#------------------------------------------------------------------------------#

  Visit MetalTabs.com for more metal tablature
  
Band: As I Lay Dying
Song: Meaning in Tragedy
Album: Shadows are Security (2005)

Tabber: Will Fleming (Mysweetshadow2005@yahoo.com)

Tunning: CGCFAD


Intro

D|------------------------------------------------------|
A|------------------------------------------------------|
F|------------------------------------------------------|
C|--------7-8----------7---------------7-5--------7-----|
G|8-7-----7-8--10-8-10----10---8-7-----7-5--8-7-8----10-|
C|----10--7-8----------------------10--7-5--------------|

Intro fill

D|------------------------------------------|
A|------------------------------------------|
F|-b12-b12---15-14-12-14-12-----------------|
C|--------------------------15-14-15-14-12--|
G|------------------------------------------|
C|------------------------------------------|





D|-----------------------|
A|-----------------------|
F|7----14----12----9-----|  (Listen to song to figure out
C|-----------------------|   How many times to play)
G|5----12----10----7-----|
C|-----------------------|


D|-------------------------------------------------|-------------|
A|-------------------------------------------------|-------------|
F|-------------------------------------------------|---(harmony)-|
C|-------------------------------------------------|-------------|
G|----5-----8-----7------10-----5----8-----7-8-7---|-12-10-------|
C|000---000---000----000----000--000---888------10-|-------14----|

D|---------------------------|
A|---------------------------|
F|-10-7--10-9--12--10-14--15-|
C|---------------------------|
G|-8--5--8--7--10--8--12--13-|
C|---------------------------|


D|---------------------------------------------------------|
A|---------------------------------------------------------|
F|---------------------------------------------------------|
C|---------------------------------------------------------|
G|--------------5-------------5------------5--8-7--8-7-----|
C|-00-000-0000----00-000-0000--00-000-0000--------------10-|

  Visit MetalTabs.com for more metal tablature

bottom separator

Contact Us | Privacy Policy | Disclaimer | Legal Notice
Copyright © 2001-2014 MetalTabs.com. All Rights Reserved.