top separator

Home

Forum

What's New

Submit a Tab

FAQ

Links

Contact Us

Link to Us

MetalTabs.com logo

Bands

0-9

A

B

C

D

E

F

G

H

I

J

K

L

M

N

O

P

Q

R

S

T

U

V

W

X

Y

Z

Search

What

Where
 

Inveracity - "Repulsed By Vaginal Reek" Guitar Tab

Plain Text Version
More Inveracity Tabs

Hits: 3778
Rated: 3.00 out of 5 (2 votes)
Updated: 2006-01-07 22:18:50

 

By:

Yura

sendpm.gif

email.gif

Important note
This tab is available online because we obtained explicit permission from Inveracity or their label.


#----------------------------------PLEASE NOTE---------------------------------#
#This file is the author's own work and represents their interpretation of the #
#song. You may only use this file for private study, scholarship, or research. #
#Unless specified otherwise, this is NOT an official tab from the band members.#
#------------------------------------------------------------------------------#

  Visit MetalTabs.com for more metal tablature
  
Song : REPULSIVE BY VAGINAL REEK
Band : INVERACITY
ALBUM : CIRCLE OF PERVERSION
Copyright Unmatched Brutality Records 2002

Version 2.0 (January'06)
Transcribed by : Yura Kowalchuk
       contact : yura_kowalchuk@mail.ru
URL: [www.blood-scrapes.nm.ru]

::TABULATURE LEGEND::
 " - tremolo             h - hammer on
 ~ - vibrato             \ - slide down
 p - pull off            / - slide down
 tr - trill              ^ - pinch harmonics
 = - sustained note      b - bend string
 p.m. - palm muting      t - tapping

Tuning is D [D, G, C, F, A, D]

[Riff 1a]
-|-------------------------|-------------------------------------|-
-|-------------------------|-------------------------------------|-
-|-------------------------|-------------------------------------|-
-|--------3-4---------2tr3-|-------------------5--------6--------|-
-|-3--4-3---------2-3------|-3"-------4"-------3--6--4--4--7--3--|-
-|-1--2-1-----4-3----------|----4"-2"----5"-1"----4--2-----5--1--|-
   .  . . . . . . . .                             .  .     .  .

[Riff 1b (x2)]
||---------------------------||
||o-------------------------o||
||---------------------------||
||---------------------------||
||o-3-----4-----3-----4-----o||
||----4-2---5-1---4-2---5-1--||
    . . . . . . . . . . . .

[Riff 2a]
||---------------[x5]--||-------------------|
||o-------------------o||-------------------|
||---------------------||-------------------|
||---------------------||-------------------|
||o-3"-------4"-------o||-3"-------4"----3--|
||-----4"-2"----5"-1"--||----4"-2"----5"-1--|
                                         .

[Riff 3 (x2)]
||-----------------------------------||---------------------------------|
||o---------------------------------o||---------------------------------|
||-----------------------------------||---------------------------------|
||----------------------3-----4-3----||---------------------------------|
||o-5-4-3-4-2-3-5-4-3-4-1-4-3-2-1-4-o||-5-4-3-4-2-3-5-4-3-4-3-----4-----|
||--3-2-1-2-0-1-3-2-1-2---2-1-----2--||-3-2-1-2-0-1-3-2-1-2---4-2---5-1-|
    . . . . . . . . . .   . . . . .     . . . . . . . . . . . . . . . .

[Riff 4 (x4)]
||---------------------------------||
||o-------------------------------o||
||---------------------------------||
||--------3------------------------||
||o-5--4--1--3--5--4--6--5--4--3--o||
||--3--2-----1--3--2--4--3--2--1---||
    .  .  .  .  .  .  .  .  .  .

[RIFF 3]

[Outro]
-|----------------------------------|
-|----------------------------------|
-|----------------------------------|
-|-5---------------------5----------|
-|-3---------3-----------3----------|
-|-------------2-1-5-4-5------------|
   .         . . . . . . .

[RIFF 1b (x2)]

[Riff 2b]
||---------------[x3]--||-------------------|
||o-------------------o||-------------------|
||---------------------||-------------------|
||---------------------||-------------------|
||o-3"-------4"-------o||-3"-------4"----3--|
||-----4"-2"----5"-1"--||----4"-2"----5"-1--|
                                         .

[Riff 5]
|-------------------------------------|
|-------------------------------------|
|-------------------------------------|
|-------------------------------------|
|---------------------------3h6p3-----|
|-5-8-5-5-3h4p3-0-0-5-8-5-8-------0-0-|
| . . . .       . . . . . .       . . |
|-------------------------------------|
|-------------------------------------|
|-------------------------------------|
|-7==================================-|
|-------------------------------------|
|-5==================================-|

[RIFF 5 (x5) /both guitars/]

[Riff 6 (x6)]
||-----------------------------------||
||o---------------------------------o||
||-----------------------------------||
||-----------------------------------||
||o---------------------------------o||
||--4-5-4-0-3-0-3-0-3-6-3-0-4-7-4-0--||
    . . . . . . . . . . . . . . . .

[RIFF 1a] [RIFF 1b (x2)] [RIFF 2b] [RIFF 3 (x2)] [RIFF 4 (x4)]

[Riff 7 (x4)]
||---------------------------||
||o-------------------------o||
||---------------------------||
||--3------------------------||
||o-1--3--5--4--6--5--4--3--o||
||-----1--3--2--4--3--2--1---||
       .  .  .  .  .  .  .

[Riff 8 (x2)]                   [ending]
||---------------------------|| -------------------------|
||o-------------------------o|| -------------------------|
||---------------------------|| -------------------------|
||--------------5"-----------|| -6/7\6-------------3/4\3-|
||o-1"----------------------o|| -------6-5-5-5-4-4-------|
||-----1"-3"-2"----3"-4"-3"--|| -4/5\4-4-3-3-3-2-2-1/2\1-|
                                   . . . . . .

[RIFF 8 (x3)] + [Ending]

[Last riff]
||--------------------[x2]-||---------
||-------------------------||---------
||-------------------------||---------
||-3-----------------------||-3-------
||-1--3--5--4--6--5--4--3--||-1-------
||----1--3--2--4--3--2--1--||---------
      .  .  .  .  .  .  .

END OF SONG

  Visit MetalTabs.com for more metal tablature

bottom separator

Contact Us | Privacy Policy | Disclaimer | Legal Notice
Copyright © 2001-2014 MetalTabs.com. All Rights Reserved.