top separator

Home

Forum

What's New

Submit a Tab

FAQ

Links

Contact Us

Link to Us

MetalTabs.com logo

Bands

0-9

A

B

C

D

E

F

G

H

I

J

K

L

M

N

O

P

Q

R

S

T

U

V

W

X

Y

Z

Search

What

Where
 

Inveracity - "Savagely Beaten" Guitar Tab

Plain Text Version
More Inveracity Tabs

Hits: 4168
Rated: 3.50 out of 5 (2 votes)
Updated: 2005-06-16 15:25:55

 

By:

Yura

sendpm.gif

email.gif

Important note
This tab is available online because we obtained explicit permission from Inveracity or their label.


#----------------------------------PLEASE NOTE---------------------------------#
#This file is the author's own work and represents their interpretation of the #
#song. You may only use this file for private study, scholarship, or research. #
#Unless specified otherwise, this is NOT an official tab from the band members.#
#------------------------------------------------------------------------------#

  Visit MetalTabs.com for more metal tablature
  
--- I N V E R A C I T Y ---
                               "Savagely Beaten"
                     From album: "Circle Of Perversion"
                     Copyright Umatched Brutality 2003 
                     Transcribed by: Yura Kowalchuk
                     Contact:[yura@grindcore.net]
                             [yura_kowalchuk@mail.ru]
                     HOME PAGE:http://www.blood-scrapes.nm.ru
                               http://brutaltabs.musica.mustdie.ru

                            TABULATURE LEGEND:
                   " - tremolo             h - hammer on
                   ~ - vibrato             \ - slide down
                   p - pull off            / - slide down
                  tr - trill               ^ - pinch harmonics
                   = - sustained note      b - bend string
                p.m. - palm muting         t - tapping

Tuning is D [D, G, C, F, A, D]

[Intro]                                               ...bass solo...
-|-------------------------|--------------------[x4]-|-----------------
-|-------------------------|-------------------------|-----------------
-|-------------------------|-------------------------|-----------------
-|-2-----------------------|-3-----------------------|-----------------
-|---3-2-1-2-1-----1-------|---4-3-2-3-2-----2-------|-3---------------
-|-------------3-2---3-2-1-|-------------4-3---4-3-2-|-1---------------
   . . . . . . . . . . . .   . . . . . . . . . . . .   .

[...continue]
-|--------------------[x2]-|-------------------------|---------------|
-|-------------------------|-------------------------|---------------|
-|-------------------------|-------------------------|---------------|
-|-3-----------------------|-2-----------------------|-------------4-|
-|---4-3-2-3-2-----2-------|---3-2-1-2-1-----1-------|-5-----4-----2-|
-|-------------4-3---4-3-2-|-------------3-2---3-2-1-|-3-----2-----2-|
   . . . . . . . . . . . .   . . . . . . . . . . . .   .     .     .

[Outro]
-|-------------------------|
-|-------------------------|
-|-------------------------|
-|-3======================-|
-|-1======================-|
-|-1======================-|
 |                         |
-|-------------------------|
-|-------------------------|
-|-------------------------|
-|-3---------4-3---------4-|
-|-1-4-3-4-5-2-1-4-3-4-5-2-|
-|-1-2-1-2-3-2-1-2-1-2-3-2-|
     . . . .     . . . . .

[Riff 1]
-|---------------------------------------------------------|-
-|---------------------------------------------------------|-
-|---------------------------------------------4-5---------|-
-|-3---------4-3---------4/5-3---------4-3---------3-4-----|-
-|-1-4-3-4-5-2-1-4-3-4-5-2/3-1-4-3-4-5-2-1-4-3---------2-3-|-
-|-1-2-1-2-3-2-1-2-1-2-3-2/3-1-2-1-2-3-2-1-2-1-------------|-
 |   . . . .     . . . .       . . . .     . . . . . . . . |
-|---------------------------------------------------------|-
-|---------------------------------------------------------|-
-|---------------------------------------------------------|-
-|-3---------4-3---------4/5-3---------4-3-----------------|-
-|-1-4-3-4-5-2-1-4-3-4-5-2/3-1-4-3-4-5-2-1-4-3-------------|-
-|-1-2-1-2-3-2-1-2-1-2-3-2/3-1-2-1-2-3-2-1-2-1-------------|-
     . . . .     . . . .       . . . .     . .

-|----------------------------------------------------[x2]-|-
-|---------------------------------------------------------|-
-|---------------------------------------------4-5---------|-
-|-3---------4-3---------4/5-3---------4-3---------3-4-----|-
-|-1-4-3-4-5-2-1-4-3-4-5-2/3-1-4-3-4-5-2-1-4-3---------2-3-|-
-|-1-2-1-2-3-2-1-2-1-2-3-2/3-1-2-1-2-3-2-1-2-1-------------|-
 |   . . . .     . . . .       . . . .     . . . . . . . . |
-|----------------------------------------------------[x2]-|-
-|---------------------------------------------------------|-
-|---------------------------------------------------------|-
-|-3---------4-3---------4/5-3---------4-3-----4-5---------|-
-|-1-4-3-4-5-2-1-4-3-4-5-2/3-1-4-3-4-5-2-1-4-3-----3-4-----|-
-|-1-2-1-2-3-2-1-2-1-2-3-2/3-1-2-1-2-3-2-1-2-1---------2-3-|-
     . . . .     . . . .       . . . .     . . . . . . . .

-|-----------------------------------------------------|-----------------
-|-----------------------------------------------------|-----------------
-|-----------------------------------------------------|-----------------
-|-3---------4-3---------4/5-3---------4-3---------4-3-|-----------------
-|-1-4-3-4-5-2-1-4-3-4-5-2/3-1-4-3-4-5-2-1-4-3-4-5-2-1-|-5-5-------------
-|-1-2-1-2-3-2-1-2-1-2-3-2/3-1-2-1-2-3-2-1-2-1-2-3-2-1-|-3-3-6"-3"-6"-3"-
 |   . . . .     . . . .       . . . .     . . . .   . | . .
-|-----------------------------------------------------|-----------------
-|-----------------------------------------------------|-----------------
-|-----------------------------------------------------|-----------------
-|-3---------4-3---------4/5-3---------4-3---------4-3-|-----------------
-|-1-4-3-4-5-2-1-4-3-4-5-2/3-1-4-3-4-5-2-1-4-3-4-5-2-1-|-5-5-8-----------
-|-1-2-1-2-3-2-1-2-1-2-3-2/3-1-2-1-2-3-2-1-2-1-2-3-2-1-|-3-3-6-----------
     . . . .     . . . .       . . . .     . . . .   .   . . .

------------------------------------|
------------------------------------|
------------------------------------|
------------------------------------|
------------------------3"-6"-2"-5"-|
4"-7"-4"-7"-6"-3"-6"-3"-------------|
                                    |
------------------------------------|
------------------------------------|
------------------------------------|
------------------------------------|
------------------------3"-6"-2"-5"-|
4"-7"-4"-7"-6"-3"-6"-3"-------------|

[Riff 2]
-|--------------------------------------------[x5]-|-------------------------
-|-------------------------------------------------|-------------------------
-|-------------------------------------------------|-------------------------
-|-------------------------------------------------|-------------------------
-|-------------------------------------3"-6"-2"-5"-|-------------------------
-|-6"-3"-6"-3"-4"-7"-4"-7"-6"-3"-6"-3"-------------|-6"-3"-6"-3"-4"-7"-4"-7"-

--------------------------|
--------------------------|
--------------------------|
-------------------4------|
-------------3"-6"-2------|
-6"-3"-6"-3"-------2------|
                   .

[Riff 3 (x4)]
-|-------------------------|
-|-------------------------|
-|-------------------------|
-|-------------------------|
-|-3"-2"----------------2"-|
-|-------4"-1"-3"-1"-4"----|

[Riff 4]
-|---------------------------------|---------------------------------|-
-|---------------------------------|---------------------------------|-
-|---------------------------------|---------------------------------|-
-|---------------------------------|---------------------------------|-
-|-------------------------3-6-2-5-|-------------------------3-6-2-5-|-
-|-6-3-6-3-4-7-4-7-6-3-6-3---------|-6-3-6-3-4-7-4-7-6-3-6-3---------|-
 | . . . . . . . . . . . . . . . . | . . . . . . . . . . . . . . . . |
-|---------------------------------|---------------------------------|-
-|---------------------------------|---------------------------------|-
-|---------------------------------|---------------------------------|-
-|---------------------------------|---------------------------------|-
-|-------------------------3-6-2-5-|-------------------------3-6-2-5-|-
-|-6-3-6-3-4-7-4-7-6-3-6-3---------|-6-3-6-3-4-7-4-7-6-3-6-3---------|-
   . . . . . . . . . . . . . . . .   . . . . . . . . . . . . . . . .

-|---------------------------------|
-|---------------------------------|
-|---------------------------------|
-|-----------------------------4---|
-|-------------------------3-6-2---|
-|-6-3-6-3-4-7-4-7-6-3-6-3-----2---|
 | . . . . . . . . . . . . . .     |
-|---------------------------------|
-|---------------------------------|
-|---------------------------------|
-|-----------------------------4---|
-|-------------------------3-6-2---|
-|-6-3-6-3-4-7-4-7-6-3-6-3-----2---|
   . . . . . . . . . . . . . . .

[Riff 5]
-|-----------------|------------[x2]-|-------------[x2]-|-
-|-----------------|-----------------|------------------|-
-|-----------------|-----------------|------------------|-
-|-----------------|-----------------|------------------|-
-|-5\4-6-5-4-3-4-3-|-5\4-6-5-4-3-4-3-|------------------|-
-|-3\2-4-3-2-1-2-1-|-3\2-4-3-2-1-2-1-|-3"2"4"3"2"1"2"1"-|-
 |     . . . . . . |     . . . . . . |                  |
-|-----------------|------------[x2]-|-------------[x2]-|-
-|-----------------|-----------------|------------------|-
-|-----------------|-----------------|------------------|-
-|-----------------|-----------------|------------------|-
-|---------4-3-4-3-|-5\4-6-5-4-3-4-3-|------------------|-
-|---------2-1-2-1-|-3\2-4-3-2-1-2-1-|-3"2"4"3"2"1"2"1"-|-
           . . . .       . . . . . .

-|---------------------------------|------------[x3]-|-
-|---------------------------------|-----------------|-
-|---------------------------------|-----------------|-
-|---------------------------------|-----------------|-
-|-5\4-6-5-4-3-4-3-5\4-6-5-4-3-4-3-|-5\4-6-5-4-3-4-3-|-
-|-3\2-4-3-2-1-2-1-3\2-4-3-2-1-2-1-|-3\2-4-3-2-1-2-1-|-
 |     . . . . . .     . . . . . . |     . . . . . . |
-|---------------------------------|------------[x3]-|-
-|---------------------------------|-----------------|-
-|---------------------------------|-----------------|-
-|---------------------------------|-----------------|-
-|-5-4-------3---3-5-4-----4-3-4-3-|-5\4-6-5-4-3-4-3-|-
-|-3-2-------1---1-3-2-----2-1-2-1-|-3\2-4-3-2-1-2-1-|-
   . .       .   . . .     . . . .       . . . . . .

-|-------------[x2]-|------------[x2]-|
-|------------------|-----------------|
-|------------------|-----------------|
-|------------------|-----------------|
-|------------------|-5\4-6-5-4-3-4-3-|
-|-3"2"4"3"2"1"2"1"-|-3\2-4-3-2-1-2-1-|
 |                  |     . . . . . . |
-|-------------[x2]-|------------[x2]-|
-|------------------|-----------------|
-|------------------|-----------------|
-|------------------|-----------------|
-|------------------|-5\4-6-5-4-3-4-3-|
-|-3"2"4"3"2"1"2"1"-|-3\2-4-3-2-1-2-1-|
                          . . . . . .

[Riff 6]
-|---------------------------------------------------------|-
-|---------------------------------------------------------|-
-|---------------------------------------------4-5---------|-
-|-3---------4-3---------4/5-3---------4-3---------3-4-----|-
-|-1-4-3-4-5-2-1-4-3-4-5-2/3-1-4-3-4-5-2-1-4-3---------2-3-|-
-|-1-2-1-2-3-2-1-2-1-2-3-2/3-1-2-1-2-3-2-1-2-1-------------|-
 |   . . . .     . . . .       . . . .     . . . . . . . . |
-|---------------------------------------------------------|-
-|---------------------------------------------------------|-
-|---------------------------------------------------------|-
-|-3---------4-3---------4/5-3---------4-3-----4-5---------|-
-|-1-4-3-4-5-2-1-4-3-4-5-2/3-1-4-3-4-5-2-1-4-3-----3-4-----|-
-|-1-2-1-2-3-2-1-2-1-2-3-2/3-1-2-1-2-3-2-1-2-1---------2-3-|-
     . . . .     . . . .       . . . .     . . . . . . . .

-|---------------------------------------------------|
-|---------------------------------------------------|
-|---------------------------------------------------|
-|-3---------4-3---------4/5-3---------4-3---------4-|
-|-1-4-3-4-5-2-1-4-3-4-5-2/3-1-4-3-4-5-2-1-4-3-4-5-2-|
-|-1-2-1-2-3-2-1-2-1-2-3-2/3-1-2-1-2-3-2-1-2-1-2-3-2-|
 |   . . . .     . . . .       . . . .     . . . .   |
-|---------------------------------------------------|
-|---------------------------------------------------|
-|---------------------------------------------------|
-|-3---------4-3---------4/5-3---------4-3---------4-|
-|-1-4-3-4-5-2-1-4-3-4-5-2/3-1-4-3-4-5-2-1-4-3-4-5-2-|
-|-1-2-1-2-3-2-1-2-1-2-3-2/3-1-2-1-2-3-2-1-2-1-2-3-2-|
     . . . .     . . . .       . . . .     . . . .

[Riff 7]
-|-------------------------|--------------------[x4]-|
-|-------------------------|-------------------------|
-|-------------------------|-------------------------|
-|-5--------------------4--|-------------------------|
-|-3-----------5--3--6--2--|-3"-2"----------------2"-|
-|-3-----------3--1--4--2--|-------4"-1"-3"-1"-4"----|
 | .           .  .  .  .  |                         |
-|-------------------------|--------------------[x4]-|
-|-------------------------|-------------------------|
-|-------------------------|-------------------------|
-|-------------------------|-------------------------|
-|-3"-2"----------------2"-|-3"-2"----------------2"-|
-|-------4"-1"-3"-1"-4"----|-------4"-1"-3"-1"-4"----|

[PLAY RIFF 4]

END OF SONG

  Visit MetalTabs.com for more metal tablature

bottom separator

Contact Us | Privacy Policy | Disclaimer | Legal Notice
Copyright © 2001-2014 MetalTabs.com. All Rights Reserved.